  0
SECTION
  2
HEADER
  9
$ACADVER
  1
AC1015
  9
$ACADMAINTVER
 70
     6
  9
$DWGCODEPAGE
  3
ANSI_1254
  9
$INSBASE
 10
0.0
 20
0.0
 30
0.0
  9
$EXTMIN
 10
0.0
 20
0.0
 30
0.0
  9
$EXTMAX
 10
279.4
 20
215.9
 30
0.0
  9
$LIMMIN
 10
0.0
 20
0.0
  9
$LIMMAX
 10
279.4
 20
215.9
  9
$ORTHOMODE
 70
     0
  9
$REGENMODE
 70
     1
  9
$FILLMODE
 70
     1
  9
$QTEXTMODE
 70
     0
  9
$MIRRTEXT
 70
     1
  9
$LTSCALE
 40
1.0
  9
$ATTMODE
 70
     1
  9
$TEXTSIZE
 40
3.5
  9
$TRACEWID
 40
1.0
  9
$TEXTSTYLE
  7
Standard
  9
$CLAYER
  8
0
  9
$CELTYPE
  6
ByLayer
  9
$CECOLOR
 62
   256
  9
$CELTSCALE
 40
1.0
  9
$DISPSILH
 70
     0
  9
$DIMSCALE
 40
1.0
  9
$DIMASZ
 40
3.5
  9
$DIMEXO
 40
1.0
  9
$DIMDLI
 40
3.75
  9
$DIMRND
 40
0.0
  9
$DIMDLE
 40
0.0
  9
$DIMEXE
 40
1.0
  9
$DIMTP
 40
0.0
  9
$DIMTM
 40
0.0
  9
$DIMTXT
 40
3.5
  9
$DIMCEN
 40
2.5
  9
$DIMTSZ
 40
0.0
  9
$DIMTOL
 70
     0
  9
$DIMLIM
 70
     0
  9
$DIMTIH
 70
     1
  9
$DIMTOH
 70
     1
  9
$DIMSE1
 70
     0
  9
$DIMSE2
 70
     0
  9
$DIMTAD
 70
     1
  9
$DIMZIN
 70
     0
  9
$DIMBLK
  1

  9
$DIMASO
 70
     1
  9
$DIMSHO
 70
     1
  9
$DIMPOST
  1

  9
$DIMAPOST
  1

  9
$DIMALT
 70
     0
  9
$DIMALTD
 70
     3
  9
$DIMALTF
 40
0.0393700787
  9
$DIMLFAC
 40
1.0
  9
$DIMTOFL
 70
     1
  9
$DIMTVP
 40
0.0
  9
$DIMTIX
 70
     0
  9
$DIMSOXD
 70
     0
  9
$DIMSAH
 70
     0
  9
$DIMBLK1
  1

  9
$DIMBLK2
  1

  9
$DIMSTYLE
  2
ISO-25
  9
$DIMCLRD
 70
     0
  9
$DIMCLRE
 70
     0
  9
$DIMCLRT
 70
     0
  9
$DIMTFAC
 40
1.0
  9
$DIMGAP
 40
1.524
  9
$DIMJUST
 70
     0
  9
$DIMSD1
 70
     0
  9
$DIMSD2
 70
     0
  9
$DIMTOLJ
 70
     0
  9
$DIMTZIN
 70
     0
  9
$DIMALTZ
 70
     0
  9
$DIMALTTZ
 70
     0
  9
$DIMUPT
 70
     0
  9
$DIMDEC
 70
     2
  9
$DIMTDEC
 70
     2
  9
$DIMALTU
 70
     2
  9
$DIMALTTD
 70
     3
  9
$DIMTXSTY
  7
Standard
  9
$DIMAUNIT
 70
     0
  9
$DIMADEC
 70
     2
  9
$DIMALTRND
 40
0.0
  9
$DIMAZIN
 70
     0
  9
$DIMDSEP
 70
    44
  9
$DIMATFIT
 70
     3
  9
$DIMFRAC
 70
     0
  9
$DIMLDRBLK
  1

  9
$DIMLUNIT
 70
     2
  9
$DIMLWD
 70
    -2
  9
$DIMLWE
 70
    -2
  9
$DIMTMOVE
 70
     0
  9
$LUNITS
 70
     2
  9
$LUPREC
 70
     2
  9
$SKETCHINC
 40
1.0
  9
$FILLETRAD
 40
10.0
  9
$AUNITS
 70
     0
  9
$AUPREC
 70
     2
  9
$MENU
  1
.
  9
$ELEVATION
 40
0.0
  9
$PELEVATION
 40
0.0
  9
$THICKNESS
 40
0.0
  9
$LIMCHECK
 70
     0
  9
$CHAMFERA
 40
0.0
  9
$CHAMFERB
 40
0.0
  9
$CHAMFERC
 40
0.0
  9
$CHAMFERD
 40
0.0
  9
$SKPOLY
 70
     0
  9
$TDCREATE
 40
2459935.710248125
  9
$TDUCREATE
 40
2459935.585248125
  9
$TDUPDATE
 40
2459935.71024831
  9
$TDUUPDATE
 40
2459935.58524831
  9
$TDINDWG
 40
0.0000000116
  9
$TDUSRTIMER
 40
0.0000000116
  9
$USRTIMER
 70
     1
  9
$ANGBASE
 50
0.0
  9
$ANGDIR
 70
     0
  9
$PDMODE
 70
     0
  9
$PDSIZE
 40
-1.0
  9
$PLINEWID
 40
0.0
  9
$SPLFRAME
 70
     0
  9
$SPLINETYPE
 70
     6
  9
$SPLINESEGS
 70
     8
  9
$HANDSEED
  5
10F
  9
$SURFTAB1
 70
     6
  9
$SURFTAB2
 70
     6
  9
$SURFTYPE
 70
     6
  9
$SURFU
 70
     6
  9
$SURFV
 70
     6
  9
$UCSBASE
  2

  9
$UCSNAME
  2

  9
$UCSORG
 10
0.0
 20
0.0
 30
0.0
  9
$UCSXDIR
 10
1.0
 20
0.0
 30
0.0
  9
$UCSYDIR
 10
0.0
 20
1.0
 30
0.0
  9
$UCSORTHOREF
  2

  9
$UCSORTHOVIEW
 70
     0
  9
$UCSORGTOP
 10
0.0
 20
0.0
 30
0.0
  9
$UCSORGBOTTOM
 10
0.0
 20
0.0
 30
0.0
  9
$UCSORGLEFT
 10
0.0
 20
0.0
 30
0.0
  9
$UCSORGRIGHT
 10
0.0
 20
0.0
 30
0.0
  9
$UCSORGFRONT
 10
0.0
 20
0.0
 30
0.0
  9
$UCSORGBACK
 10
0.0
 20
0.0
 30
0.0
  9
$PUCSBASE
  2

  9
$PUCSNAME
  2

  9
$PUCSORG
 10
0.0
 20
0.0
 30
0.0
  9
$PUCSXDIR
 10
1.0
 20
0.0
 30
0.0
  9
$PUCSYDIR
 10
0.0
 20
1.0
 30
0.0
  9
$PUCSORTHOREF
  2

  9
$PUCSORTHOVIEW
 70
     0
  9
$PUCSORGTOP
 10
0.0
 20
0.0
 30
0.0
  9
$PUCSORGBOTTOM
 10
0.0
 20
0.0
 30
0.0
  9
$PUCSORGLEFT
 10
0.0
 20
0.0
 30
0.0
  9
$PUCSORGRIGHT
 10
0.0
 20
0.0
 30
0.0
  9
$PUCSORGFRONT
 10
0.0
 20
0.0
 30
0.0
  9
$PUCSORGBACK
 10
0.0
 20
0.0
 30
0.0
  9
$USERI1
 70
     0
  9
$USERI2
 70
     0
  9
$USERI3
 70
     0
  9
$USERI4
 70
     0
  9
$USERI5
 70
     0
  9
$USERR1
 40
0.0
  9
$USERR2
 40
0.0
  9
$USERR3
 40
0.0
  9
$USERR4
 40
0.0
  9
$USERR5
 40
0.0
  9
$WORLDVIEW
 70
     1
  9
$SHADEDGE
 70
     3
  9
$SHADEDIF
 70
    70
  9
$TILEMODE
 70
     1
  9
$MAXACTVP
 70
    64
  9
$PINSBASE
 10
0.0
 20
0.0
 30
0.0
  9
$PLIMCHECK
 70
     0
  9
$PEXTMIN
 10
1.0000000000E+20
 20
1.0000000000E+20
 30
1.0000000000E+20
  9
$PEXTMAX
 10
-1.0000000000E+20
 20
-1.0000000000E+20
 30
-1.0000000000E+20
  9
$PLIMMIN
 10
0.0
 20
0.0
  9
$PLIMMAX
 10
420.0
 20
297.0
  9
$UNITMODE
 70
     0
  9
$VISRETAIN
 70
     1
  9
$PLINEGEN
 70
     0
  9
$PSLTSCALE
 70
     1
  9
$TREEDEPTH
 70
  3020
  9
$CMLSTYLE
  2
Standard
  9
$CMLJUST
 70
     0
  9
$CMLSCALE
 40
20.0
  9
$PROXYGRAPHICS
 70
     1
  9
$MEASUREMENT
 70
     1
  9
$CELWEIGHT
370
    -1
  9
$ENDCAPS
280
     0
  9
$JOINSTYLE
280
     0
  9
$LWDISPLAY
290
     1
  9
$INSUNITS
 70
     4
  9
$HYPERLINKBASE
  1

  9
$STYLESHEET
  1

  9
$XEDIT
290
     1
  9
$CEPSNTYPE
380
     0
  9
$PSTYLEMODE
290
     1
  9
$FINGERPRINTGUID
  2
{53371caf-653b-4c56-901c-7cd99c5320fe}
  9
$VERSIONGUID
  2
{FAEB1C32-E019-11D5-929B-00C0DF256EC4}
  9
$EXTNAMES
290
     1
  9
$PSVPSCALE
 40
0.0
  9
$OLESTARTUP
290
     0
  0
ENDSEC
  0
SECTION
  2
CLASSES
  0
CLASS
  1
ACDBDICTIONARYWDFLT
  2
AcDbDictionaryWithDefault
  3
ObjectDBX Classes
 90
        0
280
     0
281
     0
  0
CLASS
  1
VISUALSTYLE
  2
AcDbVisualStyle
  3
ObjectDBX Classes
 90
     4095
280
     0
281
     0
  0
CLASS
  1
MATERIAL
  2
AcDbMaterial
  3
ObjectDBX Classes
 90
     1153
280
     0
281
     0
  0
CLASS
  1
SCALE
  2
AcDbScale
  3
ObjectDBX Classes
 90
     1153
280
     0
281
     0
  0
CLASS
  1
TABLESTYLE
  2
AcDbTableStyle
  3
ObjectDBX Classes
 90
     4095
280
     0
281
     0
  0
CLASS
  1
MLEADERSTYLE
  2
AcDbMLeaderStyle
  3
ACDB_MLEADERSTYLE_CLASS
 90
     4095
280
     0
281
     0
  0
CLASS
  1
SUN
  2
AcDbSun
  3
SCENEOE
 90
     1153
280
     0
281
     0
  0
CLASS
  1
ACDBPLACEHOLDER
  2
AcDbPlaceHolder
  3
ObjectDBX Classes
 90
        0
280
     0
281
     0
  0
CLASS
  1
LAYOUT
  2
AcDbLayout
  3
ObjectDBX Classes
 90
        0
280
     0
281
     0
  0
ENDSEC
  0
SECTION
  2
TABLES
  0
TABLE
  2
VPORT
  5
8
330
0
100
AcDbSymbolTable
 70
     1
  0
VPORT
  5
29
330
8
100
AcDbSymbolTableRecord
100
AcDbViewportTableRecord
  2
*Active
 70
     0
 10
0.0
 20
0.0
 11
1.0
 21
1.0
 12
139.7
 22
107.95
 13
0.0
 23
0.0
 14
10.0
 24
10.0
 15
10.0
 25
10.0
 16
0.0
 26
0.0
 36
1.0
 17
0.0
 27
0.0
 37
0.0
 40
215.9
 41
1.2941176471
 42
50.0
 43
0.0
 44
0.0
 50
0.0
 51
0.0
 71
     0
 72
  2000
 73
     1
 74
     3
 75
     0
 76
     0
 77
     0
 78
     0
281
     0
 65
     1
110
0.0
120
0.0
130
0.0
111
1.0
121
0.0
131
0.0
112
0.0
122
1.0
132
0.0
 79
     0
146
0.0
  0
ENDTAB
  0
TABLE
  2
LTYPE
  5
5
330
0
100
AcDbSymbolTable
 70
     6
  0
LTYPE
  5
14
330
5
100
AcDbSymbolTableRecord
100
AcDbLinetypeTableRecord
  2
ByBlock
 70
     0
  3

 72
    65
 73
     0
 40
0.0
  0
LTYPE
  5
15
330
5
100
AcDbSymbolTableRecord
100
AcDbLinetypeTableRecord
  2
ByLayer
 70
     0
  3

 72
    65
 73
     0
 40
0.0
  0
LTYPE
  5
16
330
5
100
AcDbSymbolTableRecord
100
AcDbLinetypeTableRecord
  2
Continuous
 70
     0
  3
Solid line
 72
    65
 73
     0
 40
0.0
  0
LTYPE
  5
6E
330
5
100
AcDbSymbolTableRecord
100
AcDbLinetypeTableRecord
  2
HIDDEN
 70
     0
  3
Hidden __ __ __ __ __ __ __ __ __ __ __ __ __ __
 72
    65
 73
     2
 40
1.905
 49
1.27
 74
     0
 49
-0.635
 74
     0
  0
LTYPE
  5
6F
330
5
100
AcDbSymbolTableRecord
100
AcDbLinetypeTableRecord
  2
PHANTOM
 70
     0
  3
Phantom ______  __  __  ______  __  __  ______
 72
    65
 73
     6
 40
12.7
 49
6.35
 74
     0
 49
-1.27
 74
     0
 49
1.27
 74
     0
 49
-1.27
 74
     0
 49
1.27
 74
     0
 49
-1.27
 74
     0
  0
LTYPE
  5
70
330
5
100
AcDbSymbolTableRecord
100
AcDbLinetypeTableRecord
  2
CENTER
 70
     0
  3
Center ____ _ ____ _ ____ _ ____ _ ____ _ ____
 72
    65
 73
     4
 40
10.16
 49
6.35
 74
     0
 49
-1.27
 74
     0
 49
1.27
 74
     0
 49
-1.27
 74
     0
  0
LTYPE
  5
71
330
5
100
AcDbSymbolTableRecord
100
AcDbLinetypeTableRecord
  2
CENTERX2
 70
     0
  3
Center (2x) ________  __  ________  __  _____
 72
    65
 73
     4
 40
20.32
 49
12.7
 74
     0
 49
-2.54
 74
     0
 49
2.54
 74
     0
 49
-2.54
 74
     0
  0
LTYPE
  5
72
330
5
100
AcDbSymbolTableRecord
100
AcDbLinetypeTableRecord
  2
DOT2
 70
     0
  3
Dot (.5x) ........................................
 72
    65
 73
     2
 40
0.635
 49
0.0
 74
     0
 49
-0.635
 74
     0
  0
ENDTAB
  0
TABLE
  2
LAYER
  5
2
330
0
100
AcDbSymbolTable
 70
    17
  0
LAYER
  5
10
330
2
100
AcDbSymbolTableRecord
100
AcDbLayerTableRecord
  2
0
 70
     0
 62
     7
  6
Continuous
370
    -3
390
F
  0
LAYER
  5
73
330
2
100
AcDbSymbolTableRecord
100
AcDbLayerTableRecord
  2
FORMAT
 70
     0
 62
     7
  6
Continuous
370
    -3
390
F
  0
LAYER
  5
74
330
2
100
AcDbSymbolTableRecord
100
AcDbLayerTableRecord
  2
YARDIMCI_GEOMETRI
 70
     0
 62
    -6
  6
Continuous
290
     0
370
    -3
390
F
  0
LAYER
  5
75
330
2
100
AcDbSymbolTableRecord
100
AcDbLayerTableRecord
  2
SAYFA_CERCEVESI
 70
     0
 62
     7
  6
Continuous
370
    25
390
F
  0
LAYER
  5
76
330
2
100
AcDbSymbolTableRecord
100
AcDbLayerTableRecord
  2
ANTET
 70
     0
 62
     7
  6
Continuous
370
    -3
390
F
  0
LAYER
  5
77
330
2
100
AcDbSymbolTableRecord
100
AcDbLayerTableRecord
  2
OLCU
 70
     0
 62
   150
  6
Continuous
370
    -3
390
F
  0
LAYER
  5
78
330
2
100
AcDbSymbolTableRecord
100
AcDbLayerTableRecord
  2
METIN
 70
     0
 62
    96
  6
Continuous
370
    -3
390
F
  0
LAYER
  5
79
330
2
100
AcDbSymbolTableRecord
100
AcDbLayerTableRecord
  2
BALON
 70
     0
 62
     5
  6
Continuous
370
    -3
390
F
  0
LAYER
  5
7A
330
2
100
AcDbSymbolTableRecord
100
AcDbLayerTableRecord
  2
VURGU
 70
     0
 62
     7
  6
Continuous
370
    -3
390
F
  0
LAYER
  5
7B
330
2
100
AcDbSymbolTableRecord
100
AcDbLayerTableRecord
  2
SILIK
 70
     0
 62
     7
  6
Continuous
370
    -3
390
F
  0
LAYER
  5
7C
330
2
100
AcDbSymbolTableRecord
100
AcDbLayerTableRecord
  2
MODEL
 70
     0
 62
     7
  6
Continuous
370
    -3
390
F
  0
LAYER
  5
7D
330
2
100
AcDbSymbolTableRecord
100
AcDbLayerTableRecord
  2
DETAYLANDıRMA
 70
     0
 62
   190
  6
Continuous
370
    -3
390
F
  0
LAYER
  5
7E
330
2
100
AcDbSymbolTableRecord
100
AcDbLayerTableRecord
  2
TOLERANS
 70
     0
 62
   230
  6
Continuous
370
    -3
390
F
  0
LAYER
  5
7F
330
2
100
AcDbSymbolTableRecord
100
AcDbLayerTableRecord
  2
MERKEZ_CIZGILERI
 70
     0
 62
    30
  6
Continuous
370
    -3
390
F
  0
LAYER
  5
80
330
2
100
AcDbSymbolTableRecord
100
AcDbLayerTableRecord
  2
KESIT-DETAY_CIZGILERI
 70
     0
 62
     7
  6
Continuous
370
    -3
390
F
  0
LAYER
  5
81
330
2
100
AcDbSymbolTableRecord
100
AcDbLayerTableRecord
  2
\U+041E\U+0421\U+0415\U+0412\U+042B\U+0415
 70
     0
 62
     7
  6
Continuous
370
    -3
390
F
  0
LAYER
  5
82
330
2
100
AcDbSymbolTableRecord
100
AcDbLayerTableRecord
  2
\U+0412\U+041E\U+0414\U+042F\U+041D\U+042B\U+0415_\U+0417\U+041D\U+0410\U+041A\U+0418
 70
     0
 62
    11
  6
Continuous
370
    -3
390
F
  0
ENDTAB
  0
TABLE
  2
STYLE
  5
3
330
0
100
AcDbSymbolTable
 70
     1
  0
STYLE
  5
11
330
3
100
AcDbSymbolTableRecord
100
AcDbTextStyleTableRecord
  2
Standard
 70
     0
 40
0.0
 41
1.0
 50
0.0
 71
     0
 42
3.5
  3
txt
  4

  0
ENDTAB
  0
TABLE
  2
VIEW
  5
6
330
0
100
AcDbSymbolTable
 70
     0
  0
ENDTAB
  0
TABLE
  2
UCS
  5
7
330
0
100
AcDbSymbolTable
 70
     0
  0
ENDTAB
  0
TABLE
  2
APPID
  5
9
330
0
100
AcDbSymbolTable
 70
     1
  0
APPID
  5
12
330
9
100
AcDbSymbolTableRecord
100
AcDbRegAppTableRecord
  2
ACAD
 70
     0
  0
ENDTAB
  0
TABLE
  2
DIMSTYLE
  5
A
330
0
100
AcDbSymbolTable
 70
     1
100
AcDbDimStyleTable
  0
DIMSTYLE
105
27
330
A
100
AcDbSymbolTableRecord
100
AcDbDimStyleTableRecord
  2
ISO-25
 70
     0
 41
2.5
 42
0.625
 43
3.75
 44
1.25
 73
     0
 74
     0
 77
     1
 78
     8
140
2.5
141
2.5
143
0.0393700787
147
0.625
171
     3
172
     1
178
     0
271
     2
272
     2
274
     3
278
    44
283
     0
284
     8
340
11
  0
ENDTAB
  0
TABLE
  2
BLOCK_RECORD
  5
1
330
0
100
AcDbSymbolTable
 70
     4
  0
BLOCK_RECORD
  5
1F
330
1
100
AcDbSymbolTableRecord
100
AcDbBlockTableRecord
  2
*Model_Space
340
22
  0
BLOCK_RECORD
  5
1B
330
1
100
AcDbSymbolTableRecord
100
AcDbBlockTableRecord
  2
*Paper_Space
340
1E
  0
BLOCK_RECORD
  5
23
330
1
100
AcDbSymbolTableRecord
100
AcDbBlockTableRecord
  2
*Paper_Space0
340
26
  0
BLOCK_RECORD
  5
8C
330
1
100
AcDbSymbolTableRecord
100
AcDbBlockTableRecord
  2
SW_CENTERMARKSYMBOL_0
340
0
102
{BLKREFS
331
97
102
}
  0
BLOCK_RECORD
  5
DE
330
1
100
AcDbSymbolTableRecord
100
AcDbBlockTableRecord
  2
SW_CENTERMARKSYMBOL_1
340
0
102
{BLKREFS
331
E9
102
}
  0
BLOCK_RECORD
  5
EA
330
1
100
AcDbSymbolTableRecord
100
AcDbBlockTableRecord
  2
SW_CENTERMARKSYMBOL_2
340
0
102
{BLKREFS
331
F5
102
}
  0
ENDTAB
  0
ENDSEC
  0
SECTION
  2
BLOCKS
  0
BLOCK
  5
20
330
1F
100
AcDbEntity
  8
0
100
AcDbBlockBegin
  2
*Model_Space
 70
     0
 10
0.0
 20
0.0
 30
0.0
  3
*Model_Space
  1

  0
ENDBLK
  5
21
330
1F
100
AcDbEntity
  8
0
100
AcDbBlockEnd
  0
BLOCK
  5
1C
330
1B
100
AcDbEntity
 67
     1
  8
0
100
AcDbBlockBegin
  2
*Paper_Space
 70
     0
 10
0.0
 20
0.0
 30
0.0
  3
*Paper_Space
  1

  0
ENDBLK
  5
1D
330
1B
100
AcDbEntity
 67
     1
  8
0
100
AcDbBlockEnd
  0
BLOCK
  5
24
330
23
100
AcDbEntity
  8
0
100
AcDbBlockBegin
  2
*Paper_Space0
 70
     0
 10
0.0
 20
0.0
 30
0.0
  3
*Paper_Space0
  1

  0
ENDBLK
  5
25
330
23
100
AcDbEntity
  8
0
100
AcDbBlockEnd
  0
BLOCK
  5
8D
330
8C
100
AcDbEntity
  8
0
100
AcDbBlockBegin
  2
SW_CENTERMARKSYMBOL_0
 70
     0
 10
0.0
 20
0.0
 30
0.0
  3
SW_CENTERMARKSYMBOL_0
  1

  0
LINE
  5
8F
330
8C
100
AcDbEntity
  8
FORMAT
 62
     0
100
AcDbLine
 10
0.0
 20
0.0
 30
0.0
 11
0.0
 21
2.5
 31
0.0
  0
LINE
  5
90
330
8C
100
AcDbEntity
  8
FORMAT
 62
     0
100
AcDbLine
 10
0.0
 20
0.0
 30
0.0
 11
-2.5
 21
0.0
 31
0.0
  0
LINE
  5
91
330
8C
100
AcDbEntity
  8
FORMAT
 62
     0
100
AcDbLine
 10
0.0
 20
0.0
 30
0.0
 11
0.0
 21
-2.5
 31
0.0
  0
LINE
  5
92
330
8C
100
AcDbEntity
  8
FORMAT
 62
     0
100
AcDbLine
 10
0.0
 20
0.0
 30
0.0
 11
2.5
 21
0.0
 31
0.0
  0
LINE
  5
93
330
8C
100
AcDbEntity
  8
FORMAT
 62
     0
100
AcDbLine
 10
0.0
 20
5.0
 30
0.0
 11
0.0
 21
72.95
 31
0.0
  0
LINE
  5
94
330
8C
100
AcDbEntity
  8
FORMAT
 62
     0
100
AcDbLine
 10
-5.0
 20
0.0
 30
0.0
 11
-72.95
 21
0.0
 31
0.0
  0
LINE
  5
95
330
8C
100
AcDbEntity
  8
FORMAT
 62
     0
100
AcDbLine
 10
0.0
 20
-5.0
 30
0.0
 11
0.0
 21
-72.95
 31
0.0
  0
LINE
  5
96
330
8C
100
AcDbEntity
  8
FORMAT
 62
     0
100
AcDbLine
 10
5.0
 20
0.0
 30
0.0
 11
72.95
 21
0.0
 31
0.0
  0
ENDBLK
  5
8E
330
8C
100
AcDbEntity
  8
0
100
AcDbBlockEnd
  0
BLOCK
  5
DF
330
DE
100
AcDbEntity
  8
0
100
AcDbBlockBegin
  2
SW_CENTERMARKSYMBOL_1
 70
     0
 10
0.0
 20
0.0
 30
0.0
  3
SW_CENTERMARKSYMBOL_1
  1

  0
LINE
  5
E1
330
DE
100
AcDbEntity
  8
FORMAT
 62
     0
100
AcDbLine
 10
0.0
 20
0.0
 30
0.0
 11
0.0
 21
2.5
 31
0.0
  0
LINE
  5
E2
330
DE
100
AcDbEntity
  8
FORMAT
 62
     0
100
AcDbLine
 10
0.0
 20
0.0
 30
0.0
 11
-2.5
 21
0.0
 31
0.0
  0
LINE
  5
E3
330
DE
100
AcDbEntity
  8
FORMAT
 62
     0
100
AcDbLine
 10
0.0
 20
0.0
 30
0.0
 11
0.0
 21
-2.5
 31
0.0
  0
LINE
  5
E4
330
DE
100
AcDbEntity
  8
FORMAT
 62
     0
100
AcDbLine
 10
0.0
 20
0.0
 30
0.0
 11
2.5
 21
0.0
 31
0.0
  0
LINE
  5
E5
330
DE
100
AcDbEntity
  8
FORMAT
 62
     0
100
AcDbLine
 10
0.0
 20
5.0
 30
0.0
 11
0.0
 21
9.5
 31
0.0
  0
LINE
  5
E6
330
DE
100
AcDbEntity
  8
FORMAT
 62
     0
100
AcDbLine
 10
-5.0
 20
0.0
 30
0.0
 11
-9.5
 21
0.0
 31
0.0
  0
LINE
  5
E7
330
DE
100
AcDbEntity
  8
FORMAT
 62
     0
100
AcDbLine
 10
0.0
 20
-5.0
 30
0.0
 11
0.0
 21
-9.5
 31
0.0
  0
LINE
  5
E8
330
DE
100
AcDbEntity
  8
FORMAT
 62
     0
100
AcDbLine
 10
5.0
 20
0.0
 30
0.0
 11
9.5
 21
0.0
 31
0.0
  0
ENDBLK
  5
E0
330
DE
100
AcDbEntity
  8
0
100
AcDbBlockEnd
  0
BLOCK
  5
EB
330
EA
100
AcDbEntity
  8
0
100
AcDbBlockBegin
  2
SW_CENTERMARKSYMBOL_2
 70
     0
 10
0.0
 20
0.0
 30
0.0
  3
SW_CENTERMARKSYMBOL_2
  1

  0
LINE
  5
ED
330
EA
100
AcDbEntity
  8
FORMAT
 62
     0
100
AcDbLine
 10
0.0
 20
0.0
 30
0.0
 11
0.0
 21
2.5
 31
0.0
  0
LINE
  5
EE
330
EA
100
AcDbEntity
  8
FORMAT
 62
     0
100
AcDbLine
 10
0.0
 20
0.0
 30
0.0
 11
-2.5
 21
0.0
 31
0.0
  0
LINE
  5
EF
330
EA
100
AcDbEntity
  8
FORMAT
 62
     0
100
AcDbLine
 10
0.0
 20
0.0
 30
0.0
 11
0.0
 21
-2.5
 31
0.0
  0
LINE
  5
F0
330
EA
100
AcDbEntity
  8
FORMAT
 62
     0
100
AcDbLine
 10
0.0
 20
0.0
 30
0.0
 11
2.5
 21
0.0
 31
0.0
  0
LINE
  5
F1
330
EA
100
AcDbEntity
  8
FORMAT
 62
     0
100
AcDbLine
 10
0.0
 20
5.0
 30
0.0
 11
0.0
 21
9.5
 31
0.0
  0
LINE
  5
F2
330
EA
100
AcDbEntity
  8
FORMAT
 62
     0
100
AcDbLine
 10
-5.0
 20
0.0
 30
0.0
 11
-9.5
 21
0.0
 31
0.0
  0
LINE
  5
F3
330
EA
100
AcDbEntity
  8
FORMAT
 62
     0
100
AcDbLine
 10
0.0
 20
-5.0
 30
0.0
 11
0.0
 21
-9.5
 31
0.0
  0
LINE
  5
F4
330
EA
100
AcDbEntity
  8
FORMAT
 62
     0
100
AcDbLine
 10
5.0
 20
0.0
 30
0.0
 11
9.5
 21
0.0
 31
0.0
  0
ENDBLK
  5
EC
330
EA
100
AcDbEntity
  8
0
100
AcDbBlockEnd
  0
ENDSEC
  0
SECTION
  2
ENTITIES
  0
LINE
  5
83
330
1F
100
AcDbEntity
  8
0
  6
Continuous
 62
     7
370
    25
100
AcDbLine
 10
146.3222000691
 20
187.802072309
 30
0.0
 11
146.3222000691
 21
201.9706720556
 31
0.0
  0
LINE
  5
84
330
1F
100
AcDbEntity
  8
0
  6
Continuous
 62
     7
370
    25
100
AcDbLine
 10
132.3222000691
 20
201.9706720556
 30
0.0
 11
132.3222000691
 21
187.8002729577
 31
0.0
  0
CIRCLE
  5
85
330
1F
100
AcDbEntity
  8
0
  6
Continuous
 62
     7
370
    25
100
AcDbCircle
 10
139.3222000691
 20
103.5206720556
 30
0.0
 40
84.25
  0
ARC
  5
86
330
1F
100
AcDbEntity
  8
0
  6
Continuous
 62
     7
370
    25
100
AcDbCircle
 10
139.3222000691
 20
103.5206720556
 30
0.0
 40
85.24999999999983
100
AcDbArc
 50
94.7099415633
 51
180.0
  0
ARC
  5
87
330
1F
100
AcDbEntity
  8
0
  6
Continuous
 62
     7
370
    25
100
AcDbCircle
 10
139.3222000691
 20
103.5206720556
 30
0.0
 40
85.24999999999983
100
AcDbArc
 50
180.0
 51
85.2900584367
  0
SPLINE
  5
88
330
1F
100
AcDbEntity
  8
0
  6
Continuous
 62
     7
370
    25
100
AcDbSpline
210
0.0
220
0.0
230
1.0
 70
     8
 71
     3
 72
    16
 73
    12
 74
     0
 42
0.00000001
 43
0.00000001
 40
0.0
 40
0.0
 40
0.0
 40
0.0
 40
0.142849446152018
 40
0.2145282750901799
 40
0.2862065843733327
 40
0.4289241700907964
 40
0.5715338285893101
 40
0.7143132529021154
 40
0.7860088001530526
 40
0.8577035178611853
 40
1.0
 40
1.0
 40
1.0
 40
1.0
 10
144.2884063383097
 20
187.8202352267118
 30
0.0
 10
143.6805499816314
 20
187.8395435932647
 30
0.0
 10
142.7676841693129
 20
187.8685404895284
 30
0.0
 10
141.2813719311414
 20
187.8976658845281
 30
0.0
 10
139.7406263302939
 20
187.9150259408554
 30
0.0
 10
137.7421673953238
 20
187.9086111339523
 30
0.0
 10
135.5336169377854
 20
187.8602416973078
 30
0.0
 10
134.0394581925572
 20
187.8092147673793
 30
0.0
 10
133.1707428855825
 20
187.7825379420541
 30
0.0
 10
132.5060659396721
 20
187.7678431286105
 30
0.0
 10
132.396206599046
 20
187.7873209225251
 30
0.0
 10
132.3231540729965
 20
187.8002729577297
 30
0.0
  0
SPLINE
  5
89
330
1F
100
AcDbEntity
  8
0
  6
Continuous
 62
     7
370
    25
100
AcDbSpline
210
0.0
220
0.0
230
1.0
 70
     8
 71
     3
 72
    11
 73
     7
 74
     0
 42
0.00000001
 43
0.00000001
 40
0.0
 40
0.0
 40
0.0
 40
0.0
 40
0.0765892190447247
 40
0.2926834636637503
 40
0.7220876579795321
 40
1.0
 40
1.0
 40
1.0
 40
1.0
 10
146.2989743090662
 20
187.8020723089805
 30
0.0
 10
146.3049510983768
 20
187.7982380447308
 30
0.0
 10
146.3277912241655
 20
187.7835855158869
 30
0.0
 10
146.0982954271316
 20
187.7700632182476
 30
0.0
 10
145.4745591316251
 20
187.780847901549
 30
0.0
 10
144.6229950902495
 20
187.8091248908067
 30
0.0
 10
144.2884063383097
 20
187.8202352267118
 30
0.0
  0
CIRCLE
  5
8A
330
1F
100
AcDbEntity
  8
0
  6
Continuous
 62
     7
370
    25
100
AcDbCircle
 10
139.3222000691
 20
103.5206720556
 30
0.0
 40
70.45000000000002
  0
LINE
  5
8B
330
1F
100
AcDbEntity
  8
0
  6
Continuous
 62
     7
370
    25
100
AcDbLine
 10
146.3222000691
 20
201.9706720556
 30
0.0
 11
132.3222000691
 21
201.9706720556
 31
0.0
  0
INSERT
  5
97
330
1F
100
AcDbEntity
  8
FORMAT
 62
     7
100
AcDbBlockReference
  2
SW_CENTERMARKSYMBOL_0
 10
139.3222000691
 20
103.5206720556
 30
0.0
  0
ARC
  5
98
330
1F
100
AcDbEntity
  8
0
  6
Continuous
 62
     7
370
    25
100
AcDbCircle
 10
355.3970743512
 20
-2157.8543279444
 30
0.0
 40
2346.625000000004
100
AcDbArc
 50
91.5500346807
 51
91.6727506508
  0
ARC
  5
99
330
1F
100
AcDbEntity
  8
0
  6
Continuous
 62
     7
370
    25
100
AcDbCircle
 10
355.3970743512
 20
-2157.8543279444
 30
0.0
 40
2346.625000000005
100
AcDbArc
 50
90.0
 51
91.2109217042
  0
ARC
  5
9A
330
1F
100
AcDbEntity
  8
0
  6
Continuous
 62
     7
370
    25
100
AcDbCircle
 10
355.3970743512
 20
2364.8956720556
 30
0.0
 40
2346.625000000005
100
AcDbArc
 50
268.3272493492
 51
270.0
  0
LINE
  5
9B
330
1F
100
AcDbEntity
  8
0
  6
Continuous
 62
     7
370
    25
100
AcDbLine
 10
355.3970743512
 20
18.2706720556
 30
0.0
 11
380.3970743512
 21
18.2706720556
 31
0.0
  0
LINE
  5
9C
330
1F
100
AcDbEntity
  8
0
  6
Continuous
 62
     7
370
    25
100
AcDbLine
 10
380.3970743512
 20
188.7706720556
 30
0.0
 11
355.3970743512
 21
188.7706720556
 31
0.0
  0
ARC
  5
9D
330
1F
100
AcDbEntity
  8
0
  6
Continuous
 62
     7
370
    25
100
AcDbCircle
 10
380.3970743512
 20
-2157.8543279444
 30
0.0
 40
2346.625000000004
100
AcDbArc
 50
88.7907553071
 51
90.0
  0
ARC
  5
9E
330
1F
100
AcDbEntity
  8
0
  6
Continuous
 62
     7
370
    25
100
AcDbCircle
 10
380.3970743512
 20
-2157.8543279444
 30
0.0
 40
2346.625000000005
100
AcDbArc
 50
88.3272493492
 51
88.4515457919
  0
ARC
  5
9F
330
1F
100
AcDbEntity
  8
0
  6
Continuous
 62
     7
370
    25
100
AcDbCircle
 10
380.3970743512
 20
2364.8956720556
 30
0.0
 40
2346.625000000005
100
AcDbArc
 50
270.0
 51
271.6727506508
  0
LINE
  5
A0
330
1F
100
AcDbEntity
  8
0
  6
Continuous
 62
     7
370
    25
100
AcDbLine
 10
305.8970743512
 20
188.2391816257
 30
0.0
 11
305.8970743512
 21
201.9706720556
 31
0.0
  0
LINE
  5
A1
330
1F
100
AcDbEntity
  8
0
  6
Continuous
 62
     7
370
    25
100
AcDbLine
 10
291.8970743512
 20
201.9706720556
 30
0.0
 11
291.8970743512
 21
187.9100141231
 31
0.0
  0
LINE
  5
A2
330
1F
100
AcDbEntity
  8
0
  6
Continuous
 62
     7
370
    25
100
AcDbLine
 10
443.8970743512
 20
187.906467666
 30
0.0
 11
443.8970743512
 21
201.9706720556
 31
0.0
  0
LINE
  5
A3
330
1F
100
AcDbEntity
  8
0
  6
Continuous
 62
     7
370
    25
100
AcDbLine
 10
429.8970743512
 20
201.9706720556
 30
0.0
 11
429.8970743512
 21
188.246213797
 31
0.0
  0
LINE
  5
A4
330
1F
100
AcDbEntity
  8
0
  6
Continuous
 62
     7
370
    25
100
AcDbLine
 10
286.8970743512
 20
103.5206720556
 30
0.0
 11
286.8970743512
 21
187.7706720556
 31
0.0
  0
LINE
  5
A5
330
1F
100
AcDbEntity
  8
0
  6
Continuous
 62
     7
370
    25
100
AcDbLine
 10
286.8970743512
 20
19.2706720556
 30
0.0
 11
286.8970743512
 21
103.5206720556
 31
0.0
  0
SPLINE
  5
A6
330
1F
100
AcDbEntity
  8
0
  6
Continuous
 62
     7
370
    25
100
AcDbSpline
210
0.0
220
0.0
230
1.0
 70
     8
 71
     3
 72
    22
 73
    18
 74
     0
 42
0.00000001
 43
0.00000001
 40
0.0
 40
0.0
 40
0.0
 40
0.0
 40
0.0683420714577551
 40
0.1749466589041277
 40
0.2818933810872729
 40
0.335021974274516
 40
0.3896903667739786
 40
0.4428218164056725
 40
0.4975045519804897
 40
0.5504516970034122
 40
0.6049406924821826
 40
0.7117794030248686
 40
0.8187806166577808
 40
0.8718008804907574
 40
0.92636028275893
 40
0.97934840631221
 40
1.0
 40
1.0
 40
1.0
 40
1.0
 10
305.8060756004376
 20
188.2391589684644
 30
0.0
 10
305.8103501193526
 20
188.2395598225773
 30
0.0
 10
305.821292322108
 20
188.2405859560595
 30
0.0
 10
304.9526603008208
 20
188.1525655767266
 30
0.0
 10
303.6659043947776
 20
188.0414584190396
 30
0.0
 10
302.364194079293
 20
187.9505997804647
 30
0.0
 10
301.292046518046
 20
187.8884776123907
 30
0.0
 10
300.1404301879363
 20
187.8364763273233
 30
0.0
 10
298.96493827189
 20
187.799170222054
 30
0.0
 10
297.7774507724381
 20
187.777708875393
 30
0.0
 10
296.2506136667985
 20
187.7705568366598
 30
0.0
 10
294.490218412949
 20
187.7980697929952
 30
0.0
 10
293.1558626586082
 20
187.8484087769588
 30
0.0
 10
292.4185232562149
 20
187.8833781477289
 30
0.0
 10
292.0613363532298
 20
187.9021907434629
 30
0.0
 10
291.8925422173655
 20
187.9116065702893
 30
0.0
 10
291.9148929226972
 20
187.9103624296006
 30
0.0
 10
291.9211609761667
 20
187.9100135215799
 30
0.0
  0
LINE
  5
A7
330
1F
100
AcDbEntity
  8
0
  6
Continuous
 62
     7
370
    25
100
AcDbLine
 10
448.8970743512
 20
103.5206720556
 30
0.0
 11
448.8970743512
 21
187.7706720556
 31
0.0
  0
LINE
  5
A8
330
1F
100
AcDbEntity
  8
0
  6
Continuous
 62
     7
370
    25
100
AcDbLine
 10
448.8970743512
 20
19.2706720556
 30
0.0
 11
448.8970743512
 21
103.5206720556
 31
0.0
  0
SPLINE
  5
A9
330
1F
100
AcDbEntity
  8
0
  6
Continuous
 62
     7
370
    25
100
AcDbSpline
210
0.0
220
0.0
230
1.0
 70
     8
 71
     3
 72
    21
 73
    17
 74
     0
 42
0.00000001
 43
0.00000001
 40
0.0
 40
0.0
 40
0.0
 40
0.0
 40
0.070759867766612
 40
0.1777957951419624
 40
0.2849591405446795
 40
0.3380011704423019
 40
0.3925863276147487
 40
0.4996473127128936
 40
0.6065271988788727
 40
0.713592704013836
 40
0.7667384489099578
 40
0.8214240415528832
 40
0.874579357823958
 40
0.9292886144880121
 40
0.9822213632002803
 40
0.9999999999999999
 40
0.9999999999999999
 40
0.9999999999999999
 40
0.9999999999999999
 10
443.8081597257535
 20
187.9064530059537
 30
0.0
 10
443.8094615416514
 20
187.9064772495009
 30
0.0
 10
443.8127325680118
 20
187.9065381653972
 30
0.0
 10
442.9214868539222
 20
187.8590839384607
 30
0.0
 10
441.6160035084637
 20
187.809703545956
 30
0.0
 10
440.303560824248
 20
187.7822277352499
 30
0.0
 10
438.8668787556286
 20
187.7692224762832
 30
0.0
 10
436.8912587329262
 20
187.7893064575658
 30
0.0
 10
434.5376949295691
 20
187.8793119799068
 30
0.0
 10
432.7974647820617
 20
187.9915854303267
 30
0.0
 10
431.6531413602877
 20
188.0826248154302
 30
0.0
 10
430.9434265197862
 20
188.1454301006238
 30
0.0
 10
430.3936295286757
 20
188.1980550861349
 30
0.0
 10
430.047652970394
 20
188.2329173139445
 30
0.0
 10
429.88821627601
 20
188.2494505513812
 30
0.0
 10
429.9132291101655
 20
188.2468618733237
 30
0.0
 10
429.9195179714368
 20
188.2462110139658
 30
0.0
  0
LINE
  5
AA
330
1F
100
AcDbEntity
  8
0
  6
Continuous
 62
     7
370
    25
100
AcDbLine
 10
305.8970743512
 20
201.9706720556
 30
0.0
 11
291.8970743512
 21
201.9706720556
 31
0.0
  0
LINE
  5
AB
330
1F
100
AcDbEntity
  8
0
  6
Continuous
 62
     7
370
    25
100
AcDbLine
 10
443.8970743512
 20
201.9706720556
 30
0.0
 11
429.8970743512
 21
201.9706720556
 31
0.0
  0
LINE
  5
AC
330
1F
100
AcDbEntity
  8
0
  6
Continuous
 62
     1
370
    25
100
AcDbLine
 10
355.3970743512
 20
103.5206720556
 30
0.0
 11
355.3970743512
 21
188.7706720556
 31
0.0
  0
LINE
  5
AD
330
1F
100
AcDbEntity
  8
0
  6
Continuous
 62
     1
370
    25
100
AcDbLine
 10
355.3970743512
 20
18.2706720556
 30
0.0
 11
355.3970743512
 21
103.5206720556
 31
0.0
  0
LINE
  5
AE
330
1F
100
AcDbEntity
  8
0
  6
Continuous
 62
     1
370
    25
100
AcDbLine
 10
380.3970743512
 20
103.5206720556
 30
0.0
 11
380.3970743512
 21
188.7706720556
 31
0.0
  0
LINE
  5
AF
330
1F
100
AcDbEntity
  8
0
  6
Continuous
 62
     1
370
    25
100
AcDbLine
 10
380.3970743512
 20
18.2706720556
 30
0.0
 11
380.3970743512
 21
103.5206720556
 31
0.0
  0
ARC
  5
B0
330
1F
100
AcDbEntity
  8
0
  6
Continuous
 62
     7
370
    25
100
AcDbCircle
 10
2400.6972000691
 20
331.2516431475
 30
0.0
 40
2346.625000000005
100
AcDbArc
 50
180.0
 51
181.6727506508
  0
ARC
  5
B1
330
1F
100
AcDbEntity
  8
0
  6
Continuous
 62
     7
370
    25
100
AcDbCircle
 10
-2122.0527999309
 20
331.2516431475
 30
0.0
 40
2346.625000000005
100
AcDbArc
 50
358.3272493492
 51
0.0
  0
LINE
  5
B2
330
1F
100
AcDbEntity
  8
0
  6
Continuous
 62
     7
370
    25
100
AcDbLine
 10
224.5722000691
 20
331.2516431475
 30
0.0
 11
224.5722000691
 21
356.2516431475
 31
0.0
  0
LINE
  5
B3
330
1F
100
AcDbEntity
  8
0
  6
Continuous
 62
     7
370
    25
100
AcDbLine
 10
54.0722000691
 20
356.2516431475
 30
0.0
 11
54.0722000691
 21
331.2516431475
 31
0.0
  0
ARC
  5
B4
330
1F
100
AcDbEntity
  8
0
  6
Continuous
 62
     7
370
    25
100
AcDbCircle
 10
2400.6972000691
 20
356.2516431475
 30
0.0
 40
2346.625000000005
100
AcDbArc
 50
178.3272493492
 51
180.0
  0
ARC
  5
B5
330
1F
100
AcDbEntity
  8
0
  6
Continuous
 62
     7
370
    25
100
AcDbCircle
 10
-2122.0527999309
 20
356.2516431475
 30
0.0
 40
2346.625000000005
100
AcDbArc
 50
0.0
 51
1.6727506508
  0
LINE
  5
B6
330
1F
100
AcDbEntity
  8
0
  6
Continuous
 62
     7
370
    25
100
AcDbLine
 10
223.5722000691
 20
262.7516431475
 30
0.0
 11
55.0722000691
 21
262.7516431475
 31
0.0
  0
LINE
  5
B7
330
1F
100
AcDbEntity
  8
0
  6
Continuous
 62
     7
370
    25
100
AcDbLine
 10
223.5722000691
 20
424.7516431475
 30
0.0
 11
55.0722000691
 21
424.7516431475
 31
0.0
  0
LINE
  5
B8
330
1F
100
AcDbEntity
  8
0
  6
Continuous
 62
     1
370
    25
100
AcDbLine
 10
224.5722000691
 20
331.2516431475
 30
0.0
 11
54.0722000691
 21
331.2516431475
 31
0.0
  0
LINE
  5
B9
330
1F
100
AcDbEntity
  8
0
  6
Continuous
 62
     1
370
    25
100
AcDbLine
 10
224.5722000691
 20
356.2516431475
 30
0.0
 11
54.0722000691
 21
356.2516431475
 31
0.0
  0
ARC
  5
BA
330
1F
100
AcDbEntity
  8
0
  6
Continuous
 62
     7
370
    25
100
AcDbCircle
 10
-113.6390946679
 20
2364.8956720556
 30
0.0
 40
2346.625000000005
100
AcDbArc
 50
270.0
 51
271.6727506508
  0
ARC
  5
BB
330
1F
100
AcDbEntity
  8
0
  6
Continuous
 62
     7
370
    25
100
AcDbCircle
 10
-113.6390946679
 20
-2157.8543279444
 30
0.0
 40
2346.625000000004
100
AcDbArc
 50
88.7890784699
 51
90.0
  0
ARC
  5
BC
330
1F
100
AcDbEntity
  8
0
  6
Continuous
 62
     7
370
    25
100
AcDbCircle
 10
-113.6390946679
 20
-2157.8543279444
 30
0.0
 40
2346.625000000004
100
AcDbArc
 50
88.3272493492
 51
88.4499648359
  0
LINE
  5
BD
330
1F
100
AcDbEntity
  8
0
  6
Continuous
 62
     7
370
    25
100
AcDbLine
 10
-113.6390946679
 20
188.7706720556
 30
0.0
 11
-138.6390946679
 21
188.7706720556
 31
0.0
  0
LINE
  5
BE
330
1F
100
AcDbEntity
  8
0
  6
Continuous
 62
     7
370
    25
100
AcDbLine
 10
-138.6390946679
 20
18.2706720556
 30
0.0
 11
-113.6390946679
 21
18.2706720556
 31
0.0
  0
ARC
  5
BF
330
1F
100
AcDbEntity
  8
0
  6
Continuous
 62
     7
370
    25
100
AcDbCircle
 10
-138.6390946679
 20
2364.8956720556
 30
0.0
 40
2346.625000000005
100
AcDbArc
 50
268.3272493492
 51
270.0
  0
ARC
  5
C0
330
1F
100
AcDbEntity
  8
0
  6
Continuous
 62
     7
370
    25
100
AcDbCircle
 10
-138.6390946679
 20
-2157.8543279444
 30
0.0
 40
2346.625000000004
100
AcDbArc
 50
91.5484537145
 51
91.6727506508
  0
ARC
  5
C1
330
1F
100
AcDbEntity
  8
0
  6
Continuous
 62
     7
370
    25
100
AcDbCircle
 10
-138.6390946679
 20
-2157.8543279444
 30
0.0
 40
2346.625000000004
100
AcDbArc
 50
90.0
 51
91.2092449274
  0
LINE
  5
C2
330
1F
100
AcDbEntity
  8
0
  6
Continuous
 62
     7
370
    25
100
AcDbLine
 10
-50.1390946679
 20
187.9100141231
 30
0.0
 11
-50.1390946679
 21
201.9706720556
 31
0.0
  0
LINE
  5
C3
330
1F
100
AcDbEntity
  8
0
  6
Continuous
 62
     7
370
    25
100
AcDbLine
 10
-64.1390946679
 20
201.9706720556
 30
0.0
 11
-64.1390946679
 21
188.2391816257
 31
0.0
  0
LINE
  5
C4
330
1F
100
AcDbEntity
  8
0
  6
Continuous
 62
     7
370
    25
100
AcDbLine
 10
-188.1390946679
 20
188.246213797
 30
0.0
 11
-188.1390946679
 21
201.9706720556
 31
0.0
  0
LINE
  5
C5
330
1F
100
AcDbEntity
  8
0
  6
Continuous
 62
     7
370
    25
100
AcDbLine
 10
-202.1390946679
 20
201.9706720556
 30
0.0
 11
-202.1390946679
 21
187.906467666
 31
0.0
  0
LINE
  5
C6
330
1F
100
AcDbEntity
  8
0
  6
Continuous
 62
     7
370
    25
100
AcDbLine
 10
-45.1390946679
 20
187.7706720556
 30
0.0
 11
-45.1390946679
 21
19.2706720556
 31
0.0
  0
SPLINE
  5
C7
330
1F
100
AcDbEntity
  8
0
  6
Continuous
 62
     7
370
    25
100
AcDbSpline
210
0.0
220
0.0
230
1.0
 70
     8
 71
     3
 72
    12
 73
     8
 74
     0
 42
0.00000001
 43
0.00000001
 40
0.0
 40
0.0
 40
0.0
 40
0.0
 40
0.2090237545784463
 40
0.4240892609312766
 40
0.633119308376345
 40
0.8482513718613248
 40
1.0
 40
1.0
 40
1.0
 40
1.0
 10
-62.04024978869067
 20
188.0556992663867
 30
0.0
 10
-62.3035736896858
 20
188.0775148198859
 30
0.0
 10
-62.83783276843875
 20
188.121776497124
 30
0.0
 10
-63.4438999627324
 20
188.1787931540345
 30
0.0
 10
-63.86590427831607
 20
188.2203460702636
 30
0.0
 10
-64.14057743003448
 20
188.2486626411838
 30
0.0
 10
-64.0751553428279
 20
188.2419396748311
 30
0.0
 10
-64.04809555960617
 20
188.2391589318149
 30
0.0
  0
SPLINE
  5
C8
330
1F
100
AcDbEntity
  8
0
  6
Continuous
 62
     7
370
    25
100
AcDbSpline
210
0.0
220
0.0
230
1.0
 70
     8
 71
     3
 72
    17
 73
    13
 74
     0
 42
0.00000001
 43
0.00000001
 40
0.0
 40
0.0
 40
0.0
 40
0.0
 40
0.0453710725454863
 40
0.1886738864745631
 40
0.3320655573020511
 40
0.403078671416209
 40
0.4761543735321643
 40
0.5471018547056158
 40
0.6201157335521673
 40
0.7632496029030948
 40
0.9064411686289437
 40
1.0
 40
1.0
 40
1.0
 40
1.0
 10
-50.16318154378644
 20
187.9100135076346
 30
0.0
 10
-50.16224006825001
 20
187.9100693258053
 30
0.0
 10
-50.15832497789594
 20
187.9103014435533
 30
0.0
 10
-50.70773895956289
 20
187.8794771575403
 30
0.0
 10
-51.8378423176671
 20
187.8297317838705
 30
0.0
 10
-53.03729617507668
 20
187.7955738436688
 30
0.0
 10
-54.04956678069748
 20
187.7779760448567
 30
0.0
 10
-55.15949597425283
 20
187.7723231597709
 30
0.0
 10
-56.70219530808354
 20
187.78451022749
 30
0.0
 10
-58.6946366529812
 20
187.8412376502184
 30
0.0
 10
-60.67074690487379
 20
187.9508497355566
 30
0.0
 10
-61.65234331098345
 20
188.0260010359747
 30
0.0
 10
-62.04024978869067
 20
188.0556992663867
 30
0.0
  0
LINE
  5
C9
330
1F
100
AcDbEntity
  8
0
  6
Continuous
 62
     7
370
    25
100
AcDbLine
 10
-207.1390946679
 20
187.7706720556
 30
0.0
 11
-207.1390946679
 21
19.2706720556
 31
0.0
  0
SPLINE
  5
CA
330
1F
100
AcDbEntity
  8
0
  6
Continuous
 62
     7
370
    25
100
AcDbSpline
210
0.0
220
0.0
230
1.0
 70
     8
 71
     3
 72
    11
 73
     7
 74
     0
 42
0.00000001
 43
0.00000001
 40
0.0
 40
0.0
 40
0.0
 40
0.0
 40
0.426859322983431
 40
0.637991359349979
 40
0.855257051841526
 40
0.9999999999999999
 40
0.9999999999999999
 40
0.9999999999999999
 40
0.9999999999999999
 10
-200.0723284238927
 20
187.8202352267121
 30
0.0
 10
-200.5818960229825
 20
187.839669157469
 30
0.0
 10
-201.3435046085741
 20
187.8687154479763
 30
0.0
 10
-201.8763559619253
 20
187.8970106879541
 30
0.0
 10
-202.145342189504
 20
187.9116432379851
 30
0.0
 10
-202.0773623258081
 20
187.9079355530852
 30
0.0
 10
-202.0501817428554
 20
187.9064530988478
 30
0.0
  0
SPLINE
  5
CB
330
1F
100
AcDbEntity
  8
0
  6
Continuous
 62
     7
370
    25
100
AcDbSpline
210
0.0
220
0.0
230
1.0
 70
     8
 71
     3
 72
    17
 73
    13
 74
     0
 42
0.00000001
 43
0.00000001
 40
0.0
 40
0.0
 40
0.0
 40
0.0
 40
0.0489901983993319
 40
0.1913573435268724
 40
0.3339763574783975
 40
0.4772673899022606
 40
0.5482557301784671
 40
0.621313988596487
 40
0.692097443727442
 40
0.7649457962443796
 40
0.9076446528369778
 40
1.0
 40
1.0
 40
1.0
 40
1.0
 10
-188.1615381497875
 20
188.2462110282667
 30
0.0
 10
-188.1625265589813
 20
188.2461107719984
 30
0.0
 10
-188.1663873181498
 20
188.2457191676818
 30
0.0
 10
-188.7319702083118
 20
188.1870994795993
 30
0.0
 10
-190.0993265838092
 20
188.061571839781
 30
0.0
 10
-191.7294246962644
 20
187.9438117621917
 30
0.0
 10
-193.2033878311775
 20
187.8659257178143
 30
0.0
 10
-194.3624001619743
 20
187.8197456358201
 30
0.0
 10
-195.5543283305144
 20
187.7884883218069
 30
0.0
 10
-197.1092345777517
 20
187.7687642167529
 30
0.0
 10
-198.7180395298743
 20
187.7810888527493
 30
0.0
 10
-199.6903120147344
 20
187.8091928580721
 30
0.0
 10
-200.0723284238927
 20
187.8202352267121
 30
0.0
  0
LINE
  5
CC
330
1F
100
AcDbEntity
  8
0
  6
Continuous
 62
     7
370
    25
100
AcDbLine
 10
-50.1390946679
 20
201.9706720556
 30
0.0
 11
-64.1390946679
 21
201.9706720556
 31
0.0
  0
LINE
  5
CD
330
1F
100
AcDbEntity
  8
0
  6
Continuous
 62
     7
370
    25
100
AcDbLine
 10
-188.1390946679
 20
201.9706720556
 30
0.0
 11
-202.1390946679
 21
201.9706720556
 31
0.0
  0
LINE
  5
CE
330
1F
100
AcDbEntity
  8
0
  6
Continuous
 62
     1
370
    25
100
AcDbLine
 10
-113.6390946679
 20
188.7706720556
 30
0.0
 11
-113.6390946679
 21
18.2706720556
 31
0.0
  0
LINE
  5
CF
330
1F
100
AcDbEntity
  8
0
  6
Continuous
 62
     1
370
    25
100
AcDbLine
 10
-138.6390946679
 20
188.7706720556
 30
0.0
 11
-138.6390946679
 21
18.2706720556
 31
0.0
  0
ARC
  5
D0
330
1F
100
AcDbEntity
  8
0
  6
Continuous
 62
     7
370
    25
100
AcDbCircle
 10
-2122.0527999309
 20
-124.2492502235
 30
0.0
 40
2346.625000000005
100
AcDbArc
 50
0.0
 51
1.6727506508
  0
ARC
  5
D1
330
1F
100
AcDbEntity
  8
0
  6
Continuous
 62
     7
370
    25
100
AcDbCircle
 10
2400.6972000691
 20
-124.2492502235
 30
0.0
 40
2346.625000000005
100
AcDbArc
 50
178.3272493492
 51
180.0
  0
LINE
  5
D2
330
1F
100
AcDbEntity
  8
0
  6
Continuous
 62
     7
370
    25
100
AcDbLine
 10
54.0722000691
 20
-124.2492502235
 30
0.0
 11
54.0722000691
 21
-149.2492502235
 31
0.0
  0
LINE
  5
D3
330
1F
100
AcDbEntity
  8
0
  6
Continuous
 62
     7
370
    25
100
AcDbLine
 10
224.5722000691
 20
-149.2492502235
 30
0.0
 11
224.5722000691
 21
-124.2492502235
 31
0.0
  0
ARC
  5
D4
330
1F
100
AcDbEntity
  8
0
  6
Continuous
 62
     7
370
    25
100
AcDbCircle
 10
-2122.0527999309
 20
-149.2492502235
 30
0.0
 40
2346.625000000005
100
AcDbArc
 50
358.3272493492
 51
0.0
  0
ARC
  5
D5
330
1F
100
AcDbEntity
  8
0
  6
Continuous
 62
     7
370
    25
100
AcDbCircle
 10
2400.6972000691
 20
-149.2492502235
 30
0.0
 40
2346.625000000005
100
AcDbArc
 50
180.0
 51
181.6727506508
  0
CIRCLE
  5
D6
330
1F
100
AcDbEntity
  8
0
  6
Continuous
 62
     7
370
    25
100
AcDbCircle
 10
139.3222000691
 20
-67.7492502235
 30
0.0
 40
7.000000000000028
  0
CIRCLE
  5
D7
330
1F
100
AcDbEntity
  8
0
  6
Continuous
 62
     7
370
    25
100
AcDbCircle
 10
139.3222000691
 20
-67.7492502235
 30
0.0
 40
5.000000000000014
  0
CIRCLE
  5
D8
330
1F
100
AcDbEntity
  8
0
  6
Continuous
 62
     7
370
    25
100
AcDbCircle
 10
139.3222000691
 20
-205.7492502235
 30
0.0
 40
7.0
  0
CIRCLE
  5
D9
330
1F
100
AcDbEntity
  8
0
  6
Continuous
 62
     7
370
    25
100
AcDbCircle
 10
139.3222000691
 20
-205.7492502235
 30
0.0
 40
5.0
  0
LINE
  5
DA
330
1F
100
AcDbEntity
  8
0
  6
Continuous
 62
     7
370
    25
100
AcDbLine
 10
55.0722000691
 20
-55.7492502235
 30
0.0
 11
223.5722000691
 21
-55.7492502235
 31
0.0
  0
LINE
  5
DB
330
1F
100
AcDbEntity
  8
0
  6
Continuous
 62
     7
370
    25
100
AcDbLine
 10
55.0722000691
 20
-217.7492502235
 30
0.0
 11
223.5722000691
 21
-217.7492502235
 31
0.0
  0
LINE
  5
DC
330
1F
100
AcDbEntity
  8
0
  6
Continuous
 62
     1
370
    25
100
AcDbLine
 10
54.0722000691
 20
-124.2492502235
 30
0.0
 11
224.5722000691
 21
-124.2492502235
 31
0.0
  0
LINE
  5
DD
330
1F
100
AcDbEntity
  8
0
  6
Continuous
 62
     1
370
    25
100
AcDbLine
 10
54.0722000691
 20
-149.2492502235
 30
0.0
 11
224.5722000691
 21
-149.2492502235
 31
0.0
  0
INSERT
  5
E9
330
1F
100
AcDbEntity
  8
FORMAT
 62
     7
100
AcDbBlockReference
  2
SW_CENTERMARKSYMBOL_1
 10
139.3222000691
 20
-67.7492502235
 30
0.0
  0
INSERT
  5
F5
330
1F
100
AcDbEntity
  8
FORMAT
 62
     7
100
AcDbBlockReference
  2
SW_CENTERMARKSYMBOL_2
 10
139.3222000691
 20
-205.7492502235
 30
0.0
  0
SPLINE
  5
F6
330
1F
100
AcDbEntity
  8
0
  6
Continuous
 62
     7
370
    25
100
AcDbSpline
210
0.0
220
0.0
230
1.0
 70
     8
 71
     3
 72
    11
 73
     7
 74
     0
 42
0.00000001
 43
0.00000001
 40
0.0
 40
0.0
 40
0.0
 40
0.0
 40
0.1982286792798402
 40
0.498622098526151
 40
0.7989442789491493
 40
1.0
 40
1.0
 40
1.0
 40
1.0
 10
346.4737510794384
 20
-63.96110785966461
 30
0.0
 10
343.2141994438691
 20
-65.84207779919431
 30
0.0
 10
335.0151614303657
 20
-70.57344755820321
 30
0.0
 10
321.9873343553918
 20
-78.34035940103983
 30
0.0
 10
308.9738613975724
 20
-86.23287055862924
 30
0.0
 10
300.9092426721705
 20
-91.28214416991146
 30
0.0
 10
297.6752793720938
 20
-93.30693493894046
 30
0.0
  0
SPLINE
  5
F7
330
1F
100
AcDbEntity
  8
0
  6
Continuous
 62
     7
370
    25
100
AcDbSpline
210
0.0
220
0.0
230
1.0
 70
     8
 71
     3
 72
    11
 73
     7
 74
     0
 42
0.00000001
 43
0.00000001
 40
0.0
 40
0.0
 40
0.0
 40
0.0
 40
0.2968006506861691
 40
0.5973004423297386
 40
0.8977818794644717
 40
1.0
 40
1.0
 40
1.0
 40
1.0
 10
381.8893263398192
 20
-239.1866702316338
 30
0.0
 10
386.8576363435927
 20
-236.5324230276065
 30
0.0
 10
396.8561783145232
 20
-231.1908477131563
 30
0.0
 10
411.7715111338379
 20
-222.9457417832884
 30
0.0
 10
423.4086665529143
 20
-216.4034011891446
 30
0.0
 10
430.018428234736
 20
-212.5618155538473
 30
0.0
 10
431.6961986803067
 20
-211.5866973645249
 30
0.0
  0
LINE
  5
F8
330
1F
100
AcDbEntity
  8
0
  6
Continuous
 62
     7
370
    25
100
AcDbLine
 10
364.1410723664
 20
-53.7381565986
 30
0.0
 11
346.4634028367
 21
-63.9432579964
 31
0.0
  0
LINE
  5
F9
330
1F
100
AcDbEntity
  8
0
  6
Continuous
 62
     7
370
    25
100
AcDbLine
 10
431.7064747939
 20
-211.6045890323
 30
0.0
 11
449.3841443236
 21
-201.3994876345
 31
0.0
  0
LINE
  5
FA
330
1F
100
AcDbEntity
  8
0
  6
Continuous
 62
     7
370
    25
100
AcDbLine
 10
356.1334056783
 20
-91.8080100101
 30
0.0
 11
356.1334056783
 21
-80.4490097432
 31
0.0
  0
LINE
  5
FB
330
1F
100
AcDbEntity
  8
0
  6
Continuous
 62
     7
370
    25
100
AcDbLine
 10
342.1334056783
 20
-80.4490097432
 30
0.0
 11
342.1334056783
 21
-92.0021753582
 31
0.0
  0
SPLINE
  5
FC
330
1F
100
AcDbEntity
  8
0
  6
Continuous
 62
     7
370
    25
100
AcDbSpline
210
0.0
220
0.0
230
1.0
 70
     8
 71
     3
 72
    11
 73
     7
 74
     0
 42
0.00000001
 43
0.00000001
 40
0.0
 40
0.0
 40
0.0
 40
0.0
 40
0.2968048897703404
 40
0.5973034954430346
 40
0.8977837466794196
 40
1.0
 40
1.0
 40
1.0
 40
1.0
 10
413.9584921886039
 20
-26.15592959588088
 30
0.0
 10
408.990091560562
 20
-28.81022507973782
 30
0.0
 10
398.9914589093711
 20
-34.15184856738709
 30
0.0
 10
384.0760360080179
 20
-42.39700380679426
 30
0.0
 10
372.4389047469854
 20
-48.93933067594111
 30
0.0
 10
365.829167041157
 20
-52.7809022589918
 30
0.0
 10
364.1514206091019
 20
-53.75600646188092
 30
0.0
  0
SPLINE
  5
FD
330
1F
100
AcDbEntity
  8
0
  6
Continuous
 62
     7
370
    25
100
AcDbSpline
210
0.0
220
0.0
230
1.0
 70
     8
 71
     3
 72
    11
 73
     7
 74
     0
 42
0.00000001
 43
0.00000001
 40
0.0
 40
0.0
 40
0.0
 40
0.0
 40
0.1982265936292283
 40
0.4986190705032028
 40
0.7989403087789365
 40
1.0
 40
1.0
 40
1.0
 40
1.0
 10
449.3738682099705
 20
-201.3815959667411
 30
0.0
 10
452.6333957577316
 20
-199.5006398865147
 30
0.0
 10
460.8324096558577
 20
-194.7692839407325
 30
0.0
 10
473.8602128544048
 20
-187.0023863037585
 30
0.0
 10
486.8737602176608
 20
-179.1098294366056
 30
0.0
 10
494.9384528198917
 20
-174.060509290137
 30
0.0
 10
498.172490073811
 20
-172.0356721058743
 30
0.0
  0
LINE
  5
FE
330
1F
100
AcDbEntity
  8
0
  6
Continuous
 62
     7
370
    25
100
AcDbLine
 10
453.714141482
 20
-35.6707604308
 30
0.0
 11
453.714141482
 21
-24.1168500274
 31
0.0
  0
LINE
  5
FF
330
1F
100
AcDbEntity
  8
0
  6
Continuous
 62
     7
370
    25
100
AcDbLine
 10
439.714141482
 20
-24.1168500274
 30
0.0
 11
439.714141482
 21
-35.4775915896
 31
0.0
  0
LWPOLYLINE
  5
100
330
1F
100
AcDbEntity
  8
0
  6
Continuous
 62
     7
370
    25
100
AcDbPolyline
 90
      128
 70
   128
 43
0.0
 10
281.0743779891
 20
-131.3447096337
 10
281.1472714591
 20
-127.9846925214
 10
281.3657734867
 20
-124.717058943
 10
281.7293493608
 20
-121.5498053455
 10
282.2371093503
 20
-118.4906825294
 10
282.8878108814
 20
-115.5471766806
 10
283.6798615784
 20
-112.7264910512
 10
284.6113231605
 20
-110.0355283317
 10
285.6799161853
 20
-107.4808737588
 10
286.8830256264
 20
-105.0687790002
 10
288.2177072734
 20
-102.8051468561
 10
289.6806949368
 20
-100.6955168136
 10
291.2684084405
 20
-98.745051491
 10
292.9769623836
 20
-96.9585240038
 10
294.8021756482
 20
-95.340306284
 10
296.7395816317
 20
-93.8943583816
 10
298.7844391769
 20
-92.6242187734
 10
300.9317441747
 20
-91.532995704
 10
303.1762418101
 20
-90.6233595789
 10
305.5124394212
 20
-89.8975364302
 10
307.9346199409
 20
-89.3573024688
 10
310.4368558876
 20
-89.0039797378
 10
313.0130238707
 20
-88.838432877
 10
315.6568195754
 20
-88.8610670074
 10
318.3617731906
 20
-89.0718267394
 10
321.1212652415
 20
-89.4701963087
 10
323.9285427887
 20
-90.0552008382
 10
326.7767359536
 20
-90.8254087237
 10
329.6588747303
 20
-91.7789351375
 10
332.5679060421
 20
-92.9134466407
 10
335.496711002
 20
-94.2261668936
 10
338.4381223335
 20
-95.7138834496
 10
341.3849419102
 20
-97.3729556172
 10
344.3299583707
 20
-99.1993233686
 10
347.2659647663
 20
-101.1885172759
 10
350.1857761973
 20
-103.3356694484
 10
353.0822473959
 20
-105.6355254448
 10
355.9482902117
 20
-108.0824571321
 10
358.7768909576
 20
-110.6704764585
 10
361.5611275737
 20
-113.393250107
 10
364.2941865663
 20
-116.2441149942
 10
366.9693796822
 20
-119.216094576
 10
369.5801602755
 20
-122.3019159204
 10
372.1201393286
 20
-125.4940275053
 10
374.5831010871
 20
-128.784617699
 10
376.9630182708
 20
-132.1656338757
 10
379.2540668237
 20
-135.6288021224
 10
381.450640166
 20
-139.1656474859
 10
383.5473629147
 20
-142.7675147131
 10
385.5391040378
 20
-146.4255894311
 10
387.420989411
 20
-150.1309197183
 10
389.1884137455
 20
-153.8744380105
 10
390.8370518578
 20
-157.6469832911
 10
392.3628692541
 20
-161.4393235096
 10
393.7621320036
 20
-165.2421781741
 10
395.0314158759
 20
-169.0462410619
 10
396.1676147206
 20
-172.8422029937
 10
397.1679480687
 20
-176.6207746146
 10
398.0299679371
 20
-180.3727091266
 10
398.7515648184
 20
-184.0888249172
 10
399.3309728444
 20
-187.7600280284
 10
399.7667741064
 20
-191.377334411
 10
400.0579021258
 20
-194.9318919101
 10
400.2036444634
 20
-198.4150019279
 10
400.2036444634
 20
-201.8181407104
 10
400.0579021258
 20
-205.1329802069
 10
399.7667741064
 20
-208.3514084496
 10
399.3309728444
 20
-211.4655494052
 10
398.7515648184
 20
-214.4677822491
 10
398.0299679371
 20
-217.3507600143
 10
397.1679480687
 20
-220.1074275712
 10
396.1676147206
 20
-222.7310388923
 10
395.0314158759
 20
-225.215173561
 10
393.7621320036
 20
-227.5537524836
 10
392.3628692541
 20
-229.7410527655
 10
390.8370518578
 20
-231.7717217165
 10
389.1884137455
 20
-233.6407899493
 10
387.420989411
 20
-235.3436835408
 10
385.5391040378
 20
-236.8762352249
 10
383.5473629147
 20
-238.234694591
 10
381.450640166
 20
-239.4157372612
 10
379.2540668237
 20
-240.4164730264
 10
376.9630182708
 20
-241.2344529183
 10
374.5831010871
 20
-241.867675203
 10
372.1201393286
 20
-242.3145902797
 10
369.5801602755
 20
-242.5741044721
 10
366.9693796822
 20
-242.6455827055
 10
364.2941865663
 20
-242.5288500608
 10
361.5611275737
 20
-242.2241922023
 10
358.7768909576
 20
-241.7323546788
 10
355.9482902117
 20
-241.0545410992
 10
353.0822473959
 20
-240.1924101868
 10
350.1857761973
 20
-239.1480717205
 10
347.2659647663
 20
-237.9240813715
 10
344.3299583707
 20
-236.5234344493
 10
341.3849419102
 20
-234.9495585716
 10
338.4381223335
 20
-233.2063052764
 10
335.496711002
 20
-231.2979405967
 10
332.5679060421
 20
-229.2291346206
 10
329.6588747303
 20
-227.0049500631
 10
326.7767359536
 20
-224.6308298763
 10
323.9285427887
 20
-222.1125839304
 10
321.1212652415
 20
-219.456374795
 10
318.3617731906
 20
-216.6687026591
 10
315.6568195754
 20
-213.7563894235
 10
313.0130238707
 20
-210.7265620067
 10
310.4368558876
 20
-207.5866349041
 10
307.9346199409
 20
-204.3442920435
 10
305.5124394212
 20
-201.0074679812
 10
303.1762418101
 20
-197.5843284848
 10
300.9317441747
 20
-194.0832505503
 10
298.7844391769
 20
-190.5128019021
 10
296.7395816317
 20
-186.8817200263
 10
294.8021756482
 20
-183.1988907888
 10
292.9769623836
 20
-179.4733266898
 10
291.2684084405
 20
-175.714144809
 10
289.6806949368
 20
-171.9305444943
 10
288.2177072734
 20
-168.1317848499
 10
286.8830256264
 20
-164.327162077
 10
285.6799161853
 20
-160.5259867251
 10
284.6113231605
 20
-156.7375609074
 10
283.6798615784
 20
-152.9711555366
 10
282.8878108814
 20
-149.2359876378
 10
282.2371093503
 20
-145.5411977927
 10
281.7293493608
 20
-141.8958277713
 10
281.3657734867
 20
-138.3087984048
 10
281.1472714591
 20
-134.7888877552
 10
281.0743779891
 20
-131.3447096337
  0
SPLINE
  5
101
330
1F
100
AcDbEntity
  8
0
  6
Continuous
 62
     7
370
    25
100
AcDbSpline
210
0.0
220
0.0
230
1.0
 70
     8
 71
     3
 72
    13
 73
     9
 74
     0
 42
0.00000001
 43
0.00000001
 40
0.0
 40
0.0
 40
0.0
 40
0.0
 40
0.2141409983472089
 40
0.3215924194247694
 40
0.4290430615042629
 40
0.6429863921260548
 40
0.8567679325341823
 40
1.0
 40
1.0
 40
1.0
 40
1.0
 10
349.156720765977
 20
-96.04441048956048
 30
0.0
 10
348.3683730605727
 20
-95.98743289500241
 30
0.0
 10
347.184449160499
 20
-95.90186514931916
 30
0.0
 10
345.7457741812611
 20
-95.49556914889119
 30
0.0
 10
344.4296020488316
 20
-94.98169568199758
 30
0.0
 10
343.1169653251742
 20
-94.12559475434435
 30
0.0
 10
342.2198354768524
 20
-93.02867017405958
 30
0.0
 10
342.2208227910816
 20
-92.29402730782039
 30
0.0
 10
342.2212188965946
 20
-91.99929227739092
 30
0.0
  0
SPLINE
  5
102
330
1F
100
AcDbEntity
  8
0
  6
Continuous
 62
     7
370
    25
100
AcDbSpline
210
0.0
220
0.0
230
1.0
 70
     8
 71
     3
 72
    15
 73
    11
 74
     0
 42
0.00000001
 43
0.00000001
 40
0.0
 40
0.0
 40
0.0
 40
0.0
 40
0.0007180614110329
 40
0.2157123152920728
 40
0.3237718570547299
 40
0.4318293987838326
 40
0.5395770186652795
 40
0.6473240348457038
 40
0.8614297865025947
 40
1.0
 40
1.0
 40
1.0
 40
1.0
 10
356.1320978976902
 20
-91.80813709518249
 30
0.0
 10
356.1325336936897
 20
-91.80973608512969
 30
0.0
 10
356.2634508584369
 20
-92.29008751237713
 30
0.0
 10
355.8997347967955
 20
-93.04839980559701
 30
0.0
 10
355.2849930492195
 20
-93.93826806691172
 30
0.0
 10
354.6174656200561
 20
-94.54606933008291
 30
0.0
 10
353.7997985437655
 20
-95.06656602070221
 30
0.0
 10
352.54000032252
 20
-95.62508757318804
 30
0.0
 10
350.9507659113137
 20
-96.00635874419925
 30
0.0
 10
349.662783163237
 20
-96.03367689262315
 30
0.0
 10
349.156720765977
 20
-96.04441048956048
 30
0.0
  0
LWPOLYLINE
  5
103
330
1F
100
AcDbEntity
  8
0
  6
Continuous
 62
     7
370
    25
100
AcDbPolyline
 90
      117
 70
   128
 43
0.0
 10
290.8324515694
 20
-136.9779256053
 10
290.9055105451
 20
-133.9057446855
 10
291.1244731774
 20
-130.9269270994
 10
291.4886972113
 20
-128.0502102322
 10
291.9971143149
 20
-125.2840319903
 10
292.6482332133
 20
-122.6365060509
 10
293.4401440625
 20
-120.1153980639
 10
294.3705240516
 20
-117.7281028733
 10
295.4366442157
 20
-115.4816228273
 10
296.6353774408
 20
-113.3825472388
 10
297.9632076358
 20
-111.4370330583
 10
299.4162400458
 20
-109.650786814
 10
300.9902126766
 20
-108.029047874
 10
302.6805087951
 20
-106.576573078
 10
304.4821704716
 20
-105.2976227849
 10
306.389913122
 20
-104.1959483761
 10
308.3981410085
 20
-103.2747812525
 10
310.5009636525
 20
-102.5368233561
 10
312.6922131131
 20
-101.9842392445
 10
314.9654620778
 20
-101.6186497422
 10
317.314042716
 20
-101.441127186
 10
319.7310662359
 20
-101.4521922802
 10
322.209443091
 20
-101.6518125691
 10
324.7419037751
 20
-102.0394025319
 10
327.3210201446
 20
-102.6138253005
 10
329.9392272069
 20
-103.373395994
 10
332.5888453094
 20
-104.3158866605
 10
335.2621026658
 20
-105.4385328126
 10
337.9511581517
 20
-106.7380415358
 10
340.648124304
 20
-108.2106011469
 10
343.3450904563
 20
-109.851892375
 10
346.0341459422
 20
-111.6571010301
 10
348.7074032987
 20
-113.6209321242
 10
351.3570214012
 20
-115.7376254023
 10
353.9752284634
 20
-118.0009722384
 10
356.5543448329
 20
-120.4043338461
 10
359.086805517
 20
-122.9406607518
 10
361.5651823722
 20
-125.6025134717
 10
363.9822058921
 20
-128.3820843331
 10
366.3307865302
 20
-131.2712203758
 10
368.604035495
 20
-134.261447266
 10
370.7952849555
 20
-137.3439941529
 10
372.8981075996
 20
-140.5098193955
 10
374.906335486
 20
-143.7496370829
 10
376.8140781365
 20
-147.0539442715
 10
378.615739813
 20
-150.4130488591
 10
380.3060359315
 20
-153.8170980131
 10
381.8800085622
 20
-157.2561070708
 10
383.3330409723
 20
-160.7199888262
 10
384.6608711672
 20
-164.1985831173
 10
385.8596043923
 20
-167.6816866276
 10
386.9257245565
 20
-171.1590828144
 10
387.8561045456
 20
-174.6205718755
 10
388.6480153948
 20
-178.0560006672
 10
389.2991342932
 20
-181.4552924849
 10
389.8075513968
 20
-184.8084766199
 10
390.1717754307
 20
-188.1057176054
 10
390.390738063
 20
-191.3373440656
 10
390.4637970386
 20
-194.4938770832
 10
390.390738063
 20
-197.5660580031
 10
390.1717754307
 20
-200.5448755892
 10
389.8075513968
 20
-203.4215924563
 10
389.2991342932
 20
-206.1877706982
 10
388.6480153948
 20
-208.8352966376
 10
387.8561045456
 20
-211.3564046246
 10
386.9257245565
 20
-213.7436998152
 10
385.8596043923
 20
-215.9901798613
 10
384.6608711672
 20
-218.0892554498
 10
383.3330409723
 20
-220.0347696303
 10
381.8800085622
 20
-221.8210158745
 10
380.3060359315
 20
-223.4427548145
 10
378.615739813
 20
-224.8952296105
 10
376.8140781365
 20
-226.1741799037
 10
374.906335486
 20
-227.2758543125
 10
372.8981075996
 20
-228.197021436
 10
370.7952849555
 20
-228.9349793324
 10
368.604035495
 20
-229.487563444
 10
366.3307865302
 20
-229.8531529464
 10
363.9822058921
 20
-230.0306755026
 10
361.5651823722
 20
-230.0196104083
 10
359.086805517
 20
-229.8199901194
 10
356.5543448329
 20
-229.4324001566
 10
353.9752284634
 20
-228.857977388
 10
351.3570214012
 20
-228.0984066946
 10
348.7074032987
 20
-227.155916028
 10
346.0341459422
 20
-226.0332698759
 10
343.3450904563
 20
-224.7337611528
 10
340.648124304
 20
-223.2612015416
 10
337.9511581517
 20
-221.6199103135
 10
335.2621026658
 20
-219.8147016584
 10
332.5888453094
 20
-217.8508705643
 10
329.9392272069
 20
-215.7341772862
 10
327.3210201446
 20
-213.4708304502
 10
324.7419037751
 20
-211.0674688425
 10
322.209443091
 20
-208.5311419368
 10
319.7310662359
 20
-205.8692892169
 10
317.314042716
 20
-203.0897183554
 10
314.9654620778
 20
-200.2005823127
 10
312.6922131131
 20
-197.2103554226
 10
310.5009636525
 20
-194.1278085356
 10
308.3981410085
 20
-190.961983293
 10
306.389913122
 20
-187.7221656057
 10
304.4821704716
 20
-184.4178584171
 10
302.6805087951
 20
-181.0587538295
 10
300.9902126766
 20
-177.6547046755
 10
299.4162400458
 20
-174.2156956177
 10
297.9632076358
 20
-170.7518138623
 10
296.6353774408
 20
-167.2732195712
 10
295.4366442157
 20
-163.790116061
 10
294.3705240516
 20
-160.3127198741
 10
293.4401440625
 20
-156.851230813
 10
292.6482332133
 20
-153.4158020213
 10
291.9971143149
 20
-150.0165102037
 10
291.4886972113
 20
-146.6633260687
 10
291.1244731774
 20
-143.3660850831
 10
290.9055105451
 20
-140.1344586229
 10
290.8324515694
 20
-136.9779256053
  0
LWPOLYLINE
  5
104
330
1F
100
AcDbEntity
  8
0
  6
Continuous
 62
     7
370
    25
100
AcDbPolyline
 90
       37
 70
   128
 43
0.0
 10
354.0831531466
 20
-77.5915813518
 10
354.8674699883
 20
-78.1311793427
 10
355.4775601875
 20
-78.7412034373
 10
355.8948864623
 20
-79.4031183624
 10
356.1067685649
 20
-80.0968121679
 10
356.1067685649
 20
-80.8012073185
 10
355.8948864623
 20
-81.4949011239
 10
355.4775601875
 20
-82.156816049
 10
354.8674699883
 20
-82.7668401437
 10
354.0831531466
 20
-83.3064381346
 10
353.1484407327
 20
-83.7592146097
 10
352.0917335105
 20
-84.1114121849
 10
350.945138994
 20
-84.3523295153
 10
349.7434958775
 20
-84.4746464496
 10
348.523315479
 20
-84.4746464496
 10
347.3216723626
 20
-84.3523295153
 10
346.1750778461
 20
-84.1114121849
 10
345.1183706238
 20
-83.7592146097
 10
344.18365821
 20
-83.3064381346
 10
343.3993413683
 20
-82.7668401437
 10
342.789251169
 20
-82.156816049
 10
342.3719248943
 20
-81.4949011239
 10
342.1600427916
 20
-80.8012073185
 10
342.1600427916
 20
-80.0968121679
 10
342.3719248943
 20
-79.4031183624
 10
342.789251169
 20
-78.7412034373
 10
343.3993413683
 20
-78.1311793427
 10
344.18365821
 20
-77.5915813518
 10
345.1183706238
 20
-77.1388048767
 10
346.1750778461
 20
-76.7866073014
 10
347.3216723626
 20
-76.5456899711
 10
348.523315479
 20
-76.4233730368
 10
349.7434958775
 20
-76.4233730368
 10
350.945138994
 20
-76.5456899711
 10
352.0917335105
 20
-76.7866073014
 10
353.1484407327
 20
-77.1388048767
 10
354.0831531466
 20
-77.5915813518
  0
LWPOLYLINE
  5
105
330
1F
100
AcDbEntity
  8
0
  6
Continuous
 62
     7
370
    25
100
AcDbPolyline
 90
       32
 70
   128
 43
0.0
 10
352.6689395842
 20
-78.4079894636
 10
353.3082647404
 20
-78.8606236304
 10
353.7766706761
 20
-79.3782865113
 10
354.0549807973
 20
-79.939784927
 10
354.1318010548
 20
-80.5221310666
 10
354.0039864183
 20
-81.1014836106
 10
353.676769634
 20
-81.6541237978
 10
353.1635469955
 20
-82.1574264741
 10
352.4853298981
 20
-82.5907863686
 10
351.6698846292
 20
-82.9364616764
 10
350.750595614
 20
-83.1803004099
 10
349.7650986529
 20
-83.3123197825
 10
348.7537401071
 20
-83.3271149057
 10
347.7579251145
 20
-83.2240800653
 10
346.8184224577
 20
-83.00743352
 10
345.973695486
 20
-82.6860448046
 10
345.2583274209
 20
-82.2730716109
 10
344.7016055148
 20
-81.7854211101
 10
344.3263220282
 20
-81.2430577709
 10
344.147841111
 20
-80.6681860121
 10
344.173469793
 20
-80.0843411511
 10
344.4021588329
 20
-79.5154258652
 10
344.8245456746
 20
-78.9847316129
 10
345.423337751
 20
-78.5139850793
 10
346.1740204443
 20
-78.1224586828
 10
347.0458607168
 20
-77.82618156
 10
348.0031653254
 20
-77.6372833313
 10
349.0067421067
 20
-77.5634975122
 10
350.0155045096
 20
-77.6078449029
 10
350.9881536826
 20
-77.768509916
 10
351.8848692545
 20
-78.0389149069
 10
352.6689395842
 20
-78.4079894636
  0
LWPOLYLINE
  5
106
330
1F
100
AcDbEntity
  8
0
  6
Continuous
 62
     7
370
    25
100
AcDbPolyline
 90
       12
 70
   128
 43
0.0
 10
413.9565381192
 20
-26.1557019013
 10
415.483042727
 20
-25.4039386463
 10
417.7275403623
 20
-24.4943025212
 10
420.0637379734
 20
-23.7684793726
 10
422.4859184931
 20
-23.2282454112
 10
424.9881544398
 20
-22.8749226802
 10
427.5643224229
 20
-22.7093758194
 10
430.2081181276
 20
-22.7320099497
 10
432.9130717428
 20
-22.9427696818
 10
435.6725637937
 20
-23.341139251
 10
438.4798413409
 20
-23.9261437805
 10
439.714141482
 20
-24.2385138693
  0
LWPOLYLINE
  5
107
330
1F
100
AcDbEntity
  8
0
  6
Continuous
 62
     7
370
    25
100
AcDbPolyline
 90
       49
 70
   128
 43
0.0
 10
453.714141482
 20
-29.9772303966
 10
455.9362404624
 20
-31.2438985595
 10
458.8812569229
 20
-33.0702663109
 10
461.8172633185
 20
-35.0594602183
 10
464.7370747495
 20
-37.2066123907
 10
467.6335459481
 20
-39.5064683871
 10
470.4995887639
 20
-41.9534000745
 10
473.3281895098
 20
-44.5414194008
 10
476.1124261259
 20
-47.2641930493
 10
478.8454851186
 20
-50.1150579365
 10
481.5206782344
 20
-53.0870375183
 10
484.1314588277
 20
-56.1728588627
 10
486.6714378808
 20
-59.3649704477
 10
489.1343996393
 20
-62.6555606414
 10
491.5143168231
 20
-66.0365768181
 10
493.805365376
 20
-69.4997450647
 10
496.0019387183
 20
-73.0365904283
 10
498.0986614669
 20
-76.6384576554
 10
500.09040259
 20
-80.2965323735
 10
501.9722879632
 20
-84.0018626607
 10
503.7397122977
 20
-87.7453809528
 10
505.38835041
 20
-91.5179262334
 10
506.9141678063
 20
-95.310266452
 10
508.3134305558
 20
-99.1131211165
 10
509.5827144281
 20
-102.9171840043
 10
510.7189132728
 20
-106.7131459361
 10
511.719246621
 20
-110.4917175569
 10
512.5812664893
 20
-114.2436520689
 10
513.3028633707
 20
-117.9597678595
 10
513.8822713966
 20
-121.6309709707
 10
514.3180726586
 20
-125.2482773533
 10
514.609200678
 20
-128.8028348524
 10
514.7549430156
 20
-132.2859448702
 10
514.7549430156
 20
-135.6890836528
 10
514.609200678
 20
-139.0039231493
 10
514.3180726586
 20
-142.2223513919
 10
513.8822713966
 20
-145.3364923476
 10
513.3028633707
 20
-148.3387251915
 10
512.5812664893
 20
-151.2217029567
 10
511.719246621
 20
-153.9783705135
 10
510.7189132728
 20
-156.6019818346
 10
509.5827144281
 20
-159.0861165033
 10
508.3134305558
 20
-161.4246954259
 10
506.9141678063
 20
-163.6119957079
 10
505.38835041
 20
-165.6426646589
 10
503.7397122977
 20
-167.5117328917
 10
501.9722879632
 20
-169.2146264831
 10
500.09040259
 20
-170.7471781673
 10
498.1816211441
 20
-172.0539080022
  0
SPLINE
  5
108
330
1F
100
AcDbEntity
  8
0
  6
Continuous
 62
     7
370
    25
100
AcDbSpline
210
0.0
220
0.0
230
1.0
 70
     8
 71
     3
 72
    14
 73
    10
 74
     0
 42
0.00000001
 43
0.00000001
 40
0.0
 40
0.0
 40
0.0
 40
0.0
 40
0.10687863012197
 40
0.2137553019507328
 40
0.320652227917995
 40
0.4275469307447888
 40
0.6398467763565213
 40
0.8516929753588355
 40
0.9999999999999999
 40
0.9999999999999999
 40
0.9999999999999999
 40
0.9999999999999999
 10
446.7825273857854
 20
-39.51981434595996
 30
0.0
 10
446.3893232527966
 20
-39.49267385148425
 30
0.0
 10
445.6029221913368
 20
-39.43839335981691
 30
0.0
 10
444.4529435047487
 20
-39.22202044349569
 30
0.0
 10
443.368293654599
 20
-38.91419423382868
 30
0.0
 10
442.0481135921989
 20
-38.38960150830779
 30
0.0
 10
440.7265142131832
 20
-37.54617518457479
 30
0.0
 10
439.8112805960628
 20
-36.47295021252732
 30
0.0
 10
439.8013629469395
 20
-35.76566106864035
 30
0.0
 10
439.7972789711861
 20
-35.47440739768969
 30
0.0
  0
SPLINE
  5
109
330
1F
100
AcDbEntity
  8
0
  6
Continuous
 62
     7
370
    25
100
AcDbSpline
210
0.0
220
0.0
230
1.0
 70
     8
 71
     3
 72
    14
 73
    10
 74
     0
 42
0.00000001
 43
0.00000001
 40
0.0
 40
0.0
 40
0.0
 40
0.0
 40
0.1048874647197032
 40
0.2131046405081636
 40
0.3212269163577875
 40
0.4293484729500849
 40
0.6443601708059276
 40
0.8594585385435266
 40
1.0
 40
1.0
 40
1.0
 40
1.0
 10
453.7111539169395
 20
-35.67062258281391
 30
0.0
 10
453.6939293004276
 20
-35.8978026126085
 30
0.0
 10
453.6589332623456
 20
-36.35937462895368
 30
0.0
 10
453.3608997800727
 20
-37.03021666924318
 30
0.0
 10
452.8827507135395
 20
-37.65960355864227
 30
0.0
 10
452.0147321037949
 20
-38.40838881067229
 30
0.0
 10
450.5324297750957
 20
-39.12827669475303
 30
0.0
 10
448.584263713723
 20
-39.52748150381233
 30
0.0
 10
447.2928623408893
 20
-39.52198603923033
 30
0.0
 10
446.7825273857854
 20
-39.51981434595996
 30
0.0
  0
LWPOLYLINE
  5
10A
330
1F
100
AcDbEntity
  8
0
  6
Continuous
 62
     7
370
    25
100
AcDbPolyline
 90
       37
 70
   128
 43
0.0
 10
441.7643940137
 20
-26.9742784188
 10
440.980077172
 20
-26.4346804279
 10
440.3699869728
 20
-25.8246563333
 10
439.952660698
 20
-25.1627414082
 10
439.7407785954
 20
-24.4690476027
 10
439.7407785954
 20
-23.7646524521
 10
439.952660698
 20
-23.0709586467
 10
440.3699869728
 20
-22.4090437216
 10
440.980077172
 20
-21.7990196269
 10
441.7643940137
 20
-21.259421636
 10
442.6991064276
 20
-20.8066451609
 10
443.7558136498
 20
-20.4544475857
 10
444.9024081663
 20
-20.2135302553
 10
446.1040512828
 20
-20.091213321
 10
447.3242316813
 20
-20.091213321
 10
448.5258747977
 20
-20.2135302553
 10
449.6724693142
 20
-20.4544475857
 10
450.7291765365
 20
-20.8066451609
 10
451.6638889503
 20
-21.259421636
 10
452.448205792
 20
-21.7990196269
 10
453.0582959913
 20
-22.4090437216
 10
453.475622266
 20
-23.0709586467
 10
453.6875043687
 20
-23.7646524521
 10
453.6875043687
 20
-24.4690476027
 10
453.475622266
 20
-25.1627414082
 10
453.0582959913
 20
-25.8246563333
 10
452.448205792
 20
-26.4346804279
 10
451.6638889503
 20
-26.9742784188
 10
450.7291765365
 20
-27.4270548939
 10
449.6724693142
 20
-27.7792524692
 10
448.5258747977
 20
-28.0201697995
 10
447.3242316813
 20
-28.1424867338
 10
446.1040512828
 20
-28.1424867338
 10
444.9024081663
 20
-28.0201697995
 10
443.7558136498
 20
-27.7792524692
 10
442.6991064276
 20
-27.4270548939
 10
441.7643940137
 20
-26.9742784188
  0
LWPOLYLINE
  5
10B
330
1F
100
AcDbEntity
  8
0
  6
Continuous
 62
     7
370
    25
100
AcDbPolyline
 90
       32
 70
   128
 43
0.0
 10
443.1786075761
 20
-26.157870307
 10
442.5392824199
 20
-25.7052361402
 10
442.0708764842
 20
-25.1875732593
 10
441.792566363
 20
-24.6260748436
 10
441.7157461055
 20
-24.043728704
 10
441.843560742
 20
-23.46437616
 10
442.1707775263
 20
-22.9117359728
 10
442.6840001647
 20
-22.4084332965
 10
443.3622172622
 20
-21.975073402
 10
444.1776625311
 20
-21.6293980942
 10
445.0969515463
 20
-21.3855593607
 10
446.0824485074
 20
-21.2535399881
 10
447.0938070531
 20
-21.2387448649
 10
448.0896220458
 20
-21.3417797053
 10
449.0291247025
 20
-21.5584262506
 10
449.8738516742
 20
-21.879814966
 10
450.5892197394
 20
-22.2927881597
 10
451.1459416455
 20
-22.7804386605
 10
451.5212251321
 20
-23.3228019997
 10
451.6997060493
 20
-23.8976737585
 10
451.6740773673
 20
-24.4815186195
 10
451.4453883274
 20
-25.0504339054
 10
451.0230014857
 20
-25.5811281577
 10
450.4242094093
 20
-26.0518746913
 10
449.673526716
 20
-26.4434010878
 10
448.8016864434
 20
-26.7396782106
 10
447.8443818349
 20
-26.9285764393
 10
446.8408050536
 20
-27.0023622584
 10
445.8320426507
 20
-26.9580148677
 10
444.8593934777
 20
-26.7973498546
 10
443.9626779058
 20
-26.5269448637
 10
443.1786075761
 20
-26.157870307
  0
LWPOLYLINE
  5
10C
330
1F
100
AcDbEntity
  8
0
  6
Continuous
 62
     1
370
    25
100
AcDbPolyline
 90
       66
 70
   128
 43
0.0
 10
346.463790516
 20
-63.943034198
 10
348.6027921128
 20
-62.8263926112
 10
350.8431704475
 20
-61.8880823306
 10
353.1756765517
 20
-61.1325876883
 10
355.5946912141
 20
-60.5617287369
 10
358.0943868163
 20
-60.1768807257
 10
360.6687413727
 20
-59.9789707873
 10
363.3115530377
 20
-59.9684757041
 10
366.0164550466
 20
-60.1454207596
 10
368.7769310534
 20
-60.5093796777
 10
371.5863308297
 20
-61.0594756494
 10
374.4378862853
 20
-61.7943834455
 10
377.3247277734
 20
-62.7123326086
 10
380.2399006399
 20
-63.8111117188
 10
383.1763819782
 20
-65.088073721
 10
386.1270975474
 20
-66.5401423019
 10
389.0849388153
 20
-68.1638193011
 10
392.0427800832
 20
-69.9551931384
 10
394.9934956524
 20
-71.9099482375
 10
397.9299769907
 20
-74.023375422
 10
400.8451498572
 20
-76.2903832607
 10
403.7319913453
 20
-78.7055103332
 10
406.583546801
 20
-81.2629383869
 10
409.3929465772
 20
-83.9565063535
 10
412.153422584
 20
-86.7797251919
 10
414.8583245929
 20
-89.7257935206
 10
417.5011362579
 20
-92.787614003
 10
420.0754908144
 20
-95.9578104453
 10
422.5751864166
 20
-99.2287455667
 10
424.9942010789
 20
-102.5925393979
 10
427.3267071832
 20
-106.041088265
 10
429.5670855179
 20
-109.5660843117
 10
431.7099388153
 20
-113.1590355137
 10
433.7501047543
 20
-116.8112861369
 10
435.6826683963
 20
-120.5140375897
 10
437.5029740262
 20
-124.2583696194
 10
439.2066363684
 20
-128.0352618024
 10
440.7895511511
 20
-131.8356152743
 10
442.2479049939
 20
-135.650274651
 10
443.5781845946
 20
-139.4700500838
 10
444.7771851932
 20
-143.2857393991
 10
445.8420182922
 20
-147.0881502672
 10
446.7701186154
 20
-150.8681223472
 10
447.5592502878
 20
-154.6165493553
 10
448.2075122222
 20
-158.3244010025
 10
448.7133426987
 20
-161.9827447494
 10
449.0755231274
 20
-165.5827673255
 10
449.2931809839
 20
-169.1157959611
 10
449.3657919115
 20
-172.5733192808
 10
449.2931809839
 20
-175.947007808
 10
449.0755231274
 20
-179.2287340316
 10
448.7133426987
 20
-182.4105919856
 10
448.2075122222
 20
-185.4849162955
 10
447.5592502878
 20
-188.4443006449
 10
446.7701186154
 20
-191.2816156176
 10
445.8420182922
 20
-193.9900258732
 10
444.7771851932
 20
-196.5630066143
 10
443.5781845946
 20
-198.994359305
 10
442.2479049939
 20
-201.2782266035
 10
440.7895511511
 20
-203.4091064736
 10
439.2066363684
 20
-205.3818654389
 10
437.5029740262
 20
-207.1917509504
 10
435.6826683963
 20
-208.8344028353
 10
433.7501047543
 20
-210.3058638014
 10
431.7099388153
 20
-211.6025889703
 10
431.7064283764
 20
-211.6046158285
  0
LWPOLYLINE
  5
10D
330
1F
100
AcDbEntity
  8
0
  6
Continuous
 62
     1
370
    25
100
AcDbPolyline
 90
       66
 70
   128
 43
0.0
 10
364.1410723664
 20
-53.7381565986
 10
366.2804616424
 20
-52.6212912134
 10
368.5208399771
 20
-51.6829809329
 10
370.8533460814
 20
-50.9274862905
 10
373.2723607437
 20
-50.3566273391
 10
375.7720563459
 20
-49.971779328
 10
378.3464109024
 20
-49.7738693896
 10
380.9892225674
 20
-49.7633743063
 10
383.6941245762
 20
-49.9403193618
 10
386.4546005831
 20
-50.3042782799
 10
389.2640003593
 20
-50.8543742517
 10
392.115555815
 20
-51.5892820477
 10
395.002397303
 20
-52.5072312108
 10
397.9175701696
 20
-53.606010321
 10
400.8540515079
 20
-54.8829723232
 10
403.8047670771
 20
-56.3350409041
 10
406.762608345
 20
-57.9587179033
 10
409.7204496129
 20
-59.7500917406
 10
412.6711651821
 20
-61.7048468397
 10
415.6076465204
 20
-63.8182740242
 10
418.5228193869
 20
-66.0852818629
 10
421.409660875
 20
-68.5004089354
 10
424.2612163306
 20
-71.0578369891
 10
427.0706161069
 20
-73.7514049557
 10
429.8310921137
 20
-76.5746237941
 10
432.5359941226
 20
-79.5206921228
 10
435.1788057876
 20
-82.5825126052
 10
437.753160344
 20
-85.7527090475
 10
440.2528559462
 20
-89.0236441689
 10
442.6718706086
 20
-92.3874380001
 10
445.0043767128
 20
-95.8359868672
 10
447.2447550475
 20
-99.3609829139
 10
449.387608345
 20
-102.9539341159
 10
451.4277742839
 20
-106.6061847391
 10
453.3603379259
 20
-110.3089361919
 10
455.1806435559
 20
-114.0532682217
 10
456.8843058981
 20
-117.8301604046
 10
458.4672206808
 20
-121.6305138765
 10
459.9255745235
 20
-125.4451732532
 10
461.2558541242
 20
-129.264948686
 10
462.4548547228
 20
-133.0806380013
 10
463.5196878218
 20
-136.8830488694
 10
464.447788145
 20
-140.6630209494
 10
465.2369198175
 20
-144.4114479575
 10
465.8851817518
 20
-148.1192996047
 10
466.3910122283
 20
-151.7776433516
 10
466.753192657
 20
-155.3776659277
 10
466.9708505136
 20
-158.9106945633
 10
467.0434614411
 20
-162.368217883
 10
466.9708505136
 20
-165.7419064102
 10
466.753192657
 20
-169.0236326338
 10
466.3910122283
 20
-172.2054905878
 10
465.8851817518
 20
-175.2798148978
 10
465.2369198175
 20
-178.2391992471
 10
464.447788145
 20
-181.0765142198
 10
463.5196878218
 20
-183.7849244754
 10
462.4548547228
 20
-186.3579052166
 10
461.2558541242
 20
-188.7892579072
 10
459.9255745235
 20
-191.0731252057
 10
458.4672206808
 20
-193.2040050758
 10
456.8843058981
 20
-195.1767640411
 10
455.1806435559
 20
-196.9866495526
 10
453.3603379259
 20
-198.6293014376
 10
451.4277742839
 20
-200.1007624036
 10
449.387608345
 20
-201.3974875725
 10
449.3841443236
 20
-201.3994876345
  0
ENDSEC
  0
SECTION
  2
OBJECTS
  0
DICTIONARY
  5
C
330
0
100
AcDbDictionary
281
     1
  3
ACAD_GROUP
350
D
  3
ACAD_LAYOUT
350
1A
  3
ACAD_MLINESTYLE
350
17
  3
ACAD_PLOTSETTINGS
350
19
  3
ACAD_PLOTSTYLENAME
350
E
  3
ACAD_SCALELIST
350
47
  3
DWGPROPS
350
10E
  0
DICTIONARY
  5
D
102
{ACAD_REACTORS
330
C
102
}
330
C
100
AcDbDictionary
281
     1
  0
DICTIONARY
  5
1A
102
{ACAD_REACTORS
330
C
102
}
330
C
100
AcDbDictionary
281
     1
  3
Layout1
350
1E
  3
Layout2
350
26
  3
Model
350
22
  0
DICTIONARY
  5
17
102
{ACAD_REACTORS
330
C
102
}
330
C
100
AcDbDictionary
281
     1
  3
Standard
350
18
  0
DICTIONARY
  5
19
102
{ACAD_REACTORS
330
C
102
}
330
C
100
AcDbDictionary
281
     1
  0
ACDBDICTIONARYWDFLT
  5
E
102
{ACAD_REACTORS
330
C
102
}
330
C
100
AcDbDictionary
281
     1
  3
Normal
350
F
100
AcDbDictionaryWithDefault
340
F
  0
DICTIONARY
  5
47
102
{ACAD_REACTORS
330
C
102
}
330
C
100
AcDbDictionary
281
     1
  3
A0
350
48
  3
A1
350
49
  3
A2
350
4A
  3
A3
350
4B
  3
A4
350
4C
  3
A5
350
4D
  3
A6
350
4E
  3
A7
350
4F
  3
A8
350
50
  3
A9
350
51
  3
B0
350
52
  3
B1
350
53
  3
B2
350
54
  3
B3
350
55
  3
B4
350
56
  3
B5
350
57
  3
B6
350
58
  3
B7
350
59
  3
B8
350
5A
  3
B9
350
5B
  3
C0
350
5C
  3
C1
350
5D
  3
C2
350
5E
  3
C3
350
5F
  3
C4
350
60
  3
C5
350
61
  3
C6
350
62
  3
C7
350
63
  3
C8
350
64
  3
C9
350
65
  3
D0
350
66
  3
D1
350
67
  3
D2
350
68
  0
XRECORD
  5
10E
102
{ACAD_REACTORS
330
C
102
}
330
C
100
AcDbXrecord
280
     1
  1
DWGPROPS COOKIE
  2

  3

  4

  6

  7

  8
b.kav
  9

300
=
301
=
302
=
303
=
304
=
305
=
306
=
307
=
308
=
309
=
 40
0.0
 41
2459935.585248125
 42
2459935.58524831
  1

 90
        0
  0
LAYOUT
  5
1E
102
{ACAD_REACTORS
330
1A
102
}
330
1A
100
AcDbPlotSettings
  1

  2
none_device
  4

  6

 40
0.0
 41
0.0
 42
0.0
 43
0.0
 44
0.0
 45
0.0
 46
0.0
 47
0.0
 48
0.0
 49
0.0
140
0.0
141
0.0
142
1.0
143
1.0
 70
   688
 72
     1
 73
     0
 74
     5
  7

 75
    16
147
1.0
148
0.0
149
0.0
100
AcDbLayout
  1
Layout1
 70
     1
 71
     1
 10
0.0
 20
0.0
 11
420.0
 21
297.0
 12
0.0
 22
0.0
 32
0.0
 14
1.0000000000E+20
 24
1.0000000000E+20
 34
1.0000000000E+20
 15
-1.0000000000E+20
 25
-1.0000000000E+20
 35
-1.0000000000E+20
146
0.0
 13
0.0
 23
0.0
 33
0.0
 16
1.0
 26
0.0
 36
0.0
 17
0.0
 27
1.0
 37
0.0
 76
     0
330
1B
  0
LAYOUT
  5
26
102
{ACAD_REACTORS
330
1A
102
}
330
1A
100
AcDbPlotSettings
  1

  2
none_device
  4

  6

 40
0.0
 41
0.0
 42
0.0
 43
0.0
 44
0.0
 45
0.0
 46
0.0
 47
0.0
 48
0.0
 49
0.0
140
0.0
141
0.0
142
1.0
143
1.0
 70
   688
 72
     1
 73
     0
 74
     5
  7

 75
    16
147
1.0
148
0.0
149
0.0
100
AcDbLayout
  1
Layout2
 70
     1
 71
     2
 10
0.0
 20
0.0
 11
0.0
 21
0.0
 12
0.0
 22
0.0
 32
0.0
 14
0.0
 24
0.0
 34
0.0
 15
0.0
 25
0.0
 35
0.0
146
0.0
 13
0.0
 23
0.0
 33
0.0
 16
1.0
 26
0.0
 36
0.0
 17
0.0
 27
1.0
 37
0.0
 76
     0
330
23
  0
LAYOUT
  5
22
102
{ACAD_REACTORS
330
1A
102
}
330
1A
100
AcDbPlotSettings
  1

  2
none_device
  4
Letter_(8.50_x_11.00_Inches)
  6

 40
6.35
 41
6.35
 42
6.35000508
 43
6.35000508
 44
215.9
 45
279.4
 46
0.0
 47
0.0
 48
0.0
 49
0.0
140
0.0
141
0.0
142
1.0
143
1.0
 70
  1712
 72
     1
 73
     0
 74
     0
  7

 75
     0
147
1.0
148
0.0
149
0.0
100
AcDbLayout
  1
Model
 70
     1
 71
     0
 10
0.0
 20
0.0
 11
279.4
 21
215.9
 12
0.0
 22
0.0
 32
0.0
 14
0.0
 24
0.0
 34
0.0
 15
279.4
 25
215.9
 35
0.0
146
0.0
 13
0.0
 23
0.0
 33
0.0
 16
1.0
 26
0.0
 36
0.0
 17
0.0
 27
1.0
 37
0.0
 76
     0
330
1F
331
29
  0
MLINESTYLE
  5
18
102
{ACAD_REACTORS
330
17
102
}
330
17
100
AcDbMlineStyle
  2
Standard
 70
     0
  3

 62
   256
 51
90.0
 52
90.0
 71
     2
 49
0.5
 62
   256
  6
BYLAYER
 49
-0.5
 62
   256
  6
BYLAYER
  0
ACDBPLACEHOLDER
  5
F
102
{ACAD_REACTORS
330
E
102
}
330
E
  0
SCALE
  5
48
102
{ACAD_REACTORS
330
47
102
}
330
47
100
AcDbScale
 70
     0
300
1:1
140
1.0
141
1.0
290
     1
  0
SCALE
  5
49
102
{ACAD_REACTORS
330
47
102
}
330
47
100
AcDbScale
 70
     0
300
1:2
140
1.0
141
2.0
290
     0
  0
SCALE
  5
4A
102
{ACAD_REACTORS
330
47
102
}
330
47
100
AcDbScale
 70
     0
300
1:4
140
1.0
141
4.0
290
     0
  0
SCALE
  5
4B
102
{ACAD_REACTORS
330
47
102
}
330
47
100
AcDbScale
 70
     0
300
1:5
140
1.0
141
5.0
290
     0
  0
SCALE
  5
4C
102
{ACAD_REACTORS
330
47
102
}
330
47
100
AcDbScale
 70
     0
300
1:8
140
1.0
141
8.0
290
     0
  0
SCALE
  5
4D
102
{ACAD_REACTORS
330
47
102
}
330
47
100
AcDbScale
 70
     0
300
1:10
140
1.0
141
10.0
290
     0
  0
SCALE
  5
4E
102
{ACAD_REACTORS
330
47
102
}
330
47
100
AcDbScale
 70
     0
300
1:16
140
1.0
141
16.0
290
     0
  0
SCALE
  5
4F
102
{ACAD_REACTORS
330
47
102
}
330
47
100
AcDbScale
 70
     0
300
1:20
140
1.0
141
20.0
290
     0
  0
SCALE
  5
50
102
{ACAD_REACTORS
330
47
102
}
330
47
100
AcDbScale
 70
     0
300
1:30
140
1.0
141
30.0
290
     0
  0
SCALE
  5
51
102
{ACAD_REACTORS
330
47
102
}
330
47
100
AcDbScale
 70
     0
300
1:40
140
1.0
141
40.0
290
     0
  0
SCALE
  5
52
102
{ACAD_REACTORS
330
47
102
}
330
47
100
AcDbScale
 70
     0
300
1:50
140
1.0
141
50.0
290
     0
  0
SCALE
  5
53
102
{ACAD_REACTORS
330
47
102
}
330
47
100
AcDbScale
 70
     0
300
1:100
140
1.0
141
100.0
290
     0
  0
SCALE
  5
54
102
{ACAD_REACTORS
330
47
102
}
330
47
100
AcDbScale
 70
     0
300
2:1
140
2.0
141
1.0
290
     0
  0
SCALE
  5
55
102
{ACAD_REACTORS
330
47
102
}
330
47
100
AcDbScale
 70
     0
300
4:1
140
4.0
141
1.0
290
     0
  0
SCALE
  5
56
102
{ACAD_REACTORS
330
47
102
}
330
47
100
AcDbScale
 70
     0
300
8:1
140
8.0
141
1.0
290
     0
  0
SCALE
  5
57
102
{ACAD_REACTORS
330
47
102
}
330
47
100
AcDbScale
 70
     0
300
10:1
140
10.0
141
1.0
290
     0
  0
SCALE
  5
58
102
{ACAD_REACTORS
330
47
102
}
330
47
100
AcDbScale
 70
     0
300
100:1
140
100.0
141
1.0
290
     0
  0
SCALE
  5
59
102
{ACAD_REACTORS
330
47
102
}
330
47
100
AcDbScale
 70
     0
300
1/128" = 1'-0"
140
0.0078125
141
12.0
290
     0
  0
SCALE
  5
5A
102
{ACAD_REACTORS
330
47
102
}
330
47
100
AcDbScale
 70
     0
300
1/64" = 1'-0"
140
0.015625
141
12.0
290
     0
  0
SCALE
  5
5B
102
{ACAD_REACTORS
330
47
102
}
330
47
100
AcDbScale
 70
     0
300
1/32" = 1'-0"
140
0.03125
141
12.0
290
     0
  0
SCALE
  5
5C
102
{ACAD_REACTORS
330
47
102
}
330
47
100
AcDbScale
 70
     0
300
1/16" = 1'-0"
140
0.0625
141
12.0
290
     0
  0
SCALE
  5
5D
102
{ACAD_REACTORS
330
47
102
}
330
47
100
AcDbScale
 70
     0
300
3/32" = 1'-0"
140
0.09375
141
12.0
290
     0
  0
SCALE
  5
5E
102
{ACAD_REACTORS
330
47
102
}
330
47
100
AcDbScale
 70
     0
300
1/8" = 1'-0"
140
0.125
141
12.0
290
     0
  0
SCALE
  5
5F
102
{ACAD_REACTORS
330
47
102
}
330
47
100
AcDbScale
 70
     0
300
3/16" = 1'-0"
140
0.1875
141
12.0
290
     0
  0
SCALE
  5
60
102
{ACAD_REACTORS
330
47
102
}
330
47
100
AcDbScale
 70
     0
300
1/4" = 1'-0"
140
0.25
141
12.0
290
     0
  0
SCALE
  5
61
102
{ACAD_REACTORS
330
47
102
}
330
47
100
AcDbScale
 70
     0
300
3/8" = 1'-0"
140
0.375
141
12.0
290
     0
  0
SCALE
  5
62
102
{ACAD_REACTORS
330
47
102
}
330
47
100
AcDbScale
 70
     0
300
1/2" = 1'-0"
140
0.5
141
12.0
290
     0
  0
SCALE
  5
63
102
{ACAD_REACTORS
330
47
102
}
330
47
100
AcDbScale
 70
     0
300
3/4" = 1'-0"
140
0.75
141
12.0
290
     0
  0
SCALE
  5
64
102
{ACAD_REACTORS
330
47
102
}
330
47
100
AcDbScale
 70
     0
300
1" = 1'-0"
140
1.0
141
12.0
290
     0
  0
SCALE
  5
65
102
{ACAD_REACTORS
330
47
102
}
330
47
100
AcDbScale
 70
     0
300
1-1/2" = 1'-0"
140
1.5
141
12.0
290
     0
  0
SCALE
  5
66
102
{ACAD_REACTORS
330
47
102
}
330
47
100
AcDbScale
 70
     0
300
3" = 1'-0"
140
3.0
141
12.0
290
     0
  0
SCALE
  5
67
102
{ACAD_REACTORS
330
47
102
}
330
47
100
AcDbScale
 70
     0
300
6" = 1'-0"
140
6.0
141
12.0
290
     0
  0
SCALE
  5
68
102
{ACAD_REACTORS
330
47
102
}
330
47
100
AcDbScale
 70
     0
300
1'-0" = 1'-0"
140
12.0
141
12.0
290
     0
  0
ENDSEC
  0
EOF
